  0
SECTION
  2
HEADER
  9
$ACADVER
  1
AC1015
  9
$ACADMAINTVER
 70
     6
  9
$DWGCODEPAGE
  3
ANSI_1254
  9
$INSBASE
 10
0.0
 20
0.0
 30
0.0
  9
$EXTMIN
 10
0.0
 20
0.0
 30
0.0
  9
$EXTMAX
 10
279.4
 20
215.9
 30
0.0
  9
$LIMMIN
 10
0.0
 20
0.0
  9
$LIMMAX
 10
279.4
 20
215.9
  9
$ORTHOMODE
 70
     0
  9
$REGENMODE
 70
     1
  9
$FILLMODE
 70
     1
  9
$QTEXTMODE
 70
     0
  9
$MIRRTEXT
 70
     1
  9
$LTSCALE
 40
1.0
  9
$ATTMODE
 70
     1
  9
$TEXTSIZE
 40
3.5
  9
$TRACEWID
 40
1.0
  9
$TEXTSTYLE
  7
Standard
  9
$CLAYER
  8
0
  9
$CELTYPE
  6
ByLayer
  9
$CECOLOR
 62
   256
  9
$CELTSCALE
 40
1.0
  9
$DISPSILH
 70
     0
  9
$DIMSCALE
 40
1.0
  9
$DIMASZ
 40
3.5
  9
$DIMEXO
 40
1.0
  9
$DIMDLI
 40
3.75
  9
$DIMRND
 40
0.0
  9
$DIMDLE
 40
0.0
  9
$DIMEXE
 40
1.0
  9
$DIMTP
 40
0.0
  9
$DIMTM
 40
0.0
  9
$DIMTXT
 40
3.5
  9
$DIMCEN
 40
2.5
  9
$DIMTSZ
 40
0.0
  9
$DIMTOL
 70
     0
  9
$DIMLIM
 70
     0
  9
$DIMTIH
 70
     1
  9
$DIMTOH
 70
     1
  9
$DIMSE1
 70
     0
  9
$DIMSE2
 70
     0
  9
$DIMTAD
 70
     1
  9
$DIMZIN
 70
     0
  9
$DIMBLK
  1

  9
$DIMASO
 70
     1
  9
$DIMSHO
 70
     1
  9
$DIMPOST
  1

  9
$DIMAPOST
  1

  9
$DIMALT
 70
     0
  9
$DIMALTD
 70
     3
  9
$DIMALTF
 40
0.0393700787
  9
$DIMLFAC
 40
1.0
  9
$DIMTOFL
 70
     1
  9
$DIMTVP
 40
0.0
  9
$DIMTIX
 70
     0
  9
$DIMSOXD
 70
     0
  9
$DIMSAH
 70
     0
  9
$DIMBLK1
  1

  9
$DIMBLK2
  1

  9
$DIMSTYLE
  2
ISO-25
  9
$DIMCLRD
 70
     0
  9
$DIMCLRE
 70
     0
  9
$DIMCLRT
 70
     0
  9
$DIMTFAC
 40
1.0
  9
$DIMGAP
 40
1.524
  9
$DIMJUST
 70
     0
  9
$DIMSD1
 70
     0
  9
$DIMSD2
 70
     0
  9
$DIMTOLJ
 70
     0
  9
$DIMTZIN
 70
     0
  9
$DIMALTZ
 70
     0
  9
$DIMALTTZ
 70
     0
  9
$DIMUPT
 70
     0
  9
$DIMDEC
 70
     2
  9
$DIMTDEC
 70
     2
  9
$DIMALTU
 70
     2
  9
$DIMALTTD
 70
     3
  9
$DIMTXSTY
  7
Standard
  9
$DIMAUNIT
 70
     0
  9
$DIMADEC
 70
     2
  9
$DIMALTRND
 40
0.0
  9
$DIMAZIN
 70
     0
  9
$DIMDSEP
 70
    44
  9
$DIMATFIT
 70
     3
  9
$DIMFRAC
 70
     0
  9
$DIMLDRBLK
  1

  9
$DIMLUNIT
 70
     2
  9
$DIMLWD
 70
    -2
  9
$DIMLWE
 70
    -2
  9
$DIMTMOVE
 70
     0
  9
$LUNITS
 70
     2
  9
$LUPREC
 70
     2
  9
$SKETCHINC
 40
1.0
  9
$FILLETRAD
 40
10.0
  9
$AUNITS
 70
     0
  9
$AUPREC
 70
     2
  9
$MENU
  1
.
  9
$ELEVATION
 40
0.0
  9
$PELEVATION
 40
0.0
  9
$THICKNESS
 40
0.0
  9
$LIMCHECK
 70
     0
  9
$CHAMFERA
 40
0.0
  9
$CHAMFERB
 40
0.0
  9
$CHAMFERC
 40
0.0
  9
$CHAMFERD
 40
0.0
  9
$SKPOLY
 70
     0
  9
$TDCREATE
 40
2458985.66885066
  9
$TDUCREATE
 40
2458985.54385066
  9
$TDUPDATE
 40
2458985.668850937
  9
$TDUUPDATE
 40
2458985.543850937
  9
$TDINDWG
 40
0.0000000116
  9
$TDUSRTIMER
 40
0.0000000116
  9
$USRTIMER
 70
     1
  9
$ANGBASE
 50
0.0
  9
$ANGDIR
 70
     0
  9
$PDMODE
 70
     0
  9
$PDSIZE
 40
-1.0
  9
$PLINEWID
 40
0.0
  9
$SPLFRAME
 70
     0
  9
$SPLINETYPE
 70
     6
  9
$SPLINESEGS
 70
     8
  9
$HANDSEED
  5
D2
  9
$SURFTAB1
 70
     6
  9
$SURFTAB2
 70
     6
  9
$SURFTYPE
 70
     6
  9
$SURFU
 70
     6
  9
$SURFV
 70
     6
  9
$UCSBASE
  2

  9
$UCSNAME
  2

  9
$UCSORG
 10
0.0
 20
0.0
 30
0.0
  9
$UCSXDIR
 10
1.0
 20
0.0
 30
0.0
  9
$UCSYDIR
 10
0.0
 20
1.0
 30
0.0
  9
$UCSORTHOREF
  2

  9
$UCSORTHOVIEW
 70
     0
  9
$UCSORGTOP
 10
0.0
 20
0.0
 30
0.0
  9
$UCSORGBOTTOM
 10
0.0
 20
0.0
 30
0.0
  9
$UCSORGLEFT
 10
0.0
 20
0.0
 30
0.0
  9
$UCSORGRIGHT
 10
0.0
 20
0.0
 30
0.0
  9
$UCSORGFRONT
 10
0.0
 20
0.0
 30
0.0
  9
$UCSORGBACK
 10
0.0
 20
0.0
 30
0.0
  9
$PUCSBASE
  2

  9
$PUCSNAME
  2

  9
$PUCSORG
 10
0.0
 20
0.0
 30
0.0
  9
$PUCSXDIR
 10
1.0
 20
0.0
 30
0.0
  9
$PUCSYDIR
 10
0.0
 20
1.0
 30
0.0
  9
$PUCSORTHOREF
  2

  9
$PUCSORTHOVIEW
 70
     0
  9
$PUCSORGTOP
 10
0.0
 20
0.0
 30
0.0
  9
$PUCSORGBOTTOM
 10
0.0
 20
0.0
 30
0.0
  9
$PUCSORGLEFT
 10
0.0
 20
0.0
 30
0.0
  9
$PUCSORGRIGHT
 10
0.0
 20
0.0
 30
0.0
  9
$PUCSORGFRONT
 10
0.0
 20
0.0
 30
0.0
  9
$PUCSORGBACK
 10
0.0
 20
0.0
 30
0.0
  9
$USERI1
 70
     0
  9
$USERI2
 70
     0
  9
$USERI3
 70
     0
  9
$USERI4
 70
     0
  9
$USERI5
 70
     0
  9
$USERR1
 40
0.0
  9
$USERR2
 40
0.0
  9
$USERR3
 40
0.0
  9
$USERR4
 40
0.0
  9
$USERR5
 40
0.0
  9
$WORLDVIEW
 70
     1
  9
$SHADEDGE
 70
     3
  9
$SHADEDIF
 70
    70
  9
$TILEMODE
 70
     1
  9
$MAXACTVP
 70
    64
  9
$PINSBASE
 10
0.0
 20
0.0
 30
0.0
  9
$PLIMCHECK
 70
     0
  9
$PEXTMIN
 10
1.0000000000E+20
 20
1.0000000000E+20
 30
1.0000000000E+20
  9
$PEXTMAX
 10
-1.0000000000E+20
 20
-1.0000000000E+20
 30
-1.0000000000E+20
  9
$PLIMMIN
 10
0.0
 20
0.0
  9
$PLIMMAX
 10
420.0
 20
297.0
  9
$UNITMODE
 70
     0
  9
$VISRETAIN
 70
     1
  9
$PLINEGEN
 70
     0
  9
$PSLTSCALE
 70
     1
  9
$TREEDEPTH
 70
  3020
  9
$CMLSTYLE
  2
Standard
  9
$CMLJUST
 70
     0
  9
$CMLSCALE
 40
20.0
  9
$PROXYGRAPHICS
 70
     1
  9
$MEASUREMENT
 70
     1
  9
$CELWEIGHT
370
    -1
  9
$ENDCAPS
280
     0
  9
$JOINSTYLE
280
     0
  9
$LWDISPLAY
290
     1
  9
$INSUNITS
 70
     4
  9
$HYPERLINKBASE
  1

  9
$STYLESHEET
  1

  9
$XEDIT
290
     1
  9
$CEPSNTYPE
380
     0
  9
$PSTYLEMODE
290
     1
  9
$FINGERPRINTGUID
  2
{2f67513a-7836-4656-83f4-7b97d62290c4}
  9
$VERSIONGUID
  2
{FAEB1C32-E019-11D5-929B-00C0DF256EC4}
  9
$EXTNAMES
290
     1
  9
$PSVPSCALE
 40
0.0
  9
$OLESTARTUP
290
     0
  0
ENDSEC
  0
SECTION
  2
CLASSES
  0
CLASS
  1
ACDBDICTIONARYWDFLT
  2
AcDbDictionaryWithDefault
  3
ObjectDBX Classes
 90
        0
280
     0
281
     0
  0
CLASS
  1
VISUALSTYLE
  2
AcDbVisualStyle
  3
ObjectDBX Classes
 90
     4095
280
     0
281
     0
  0
CLASS
  1
MATERIAL
  2
AcDbMaterial
  3
ObjectDBX Classes
 90
     1153
280
     0
281
     0
  0
CLASS
  1
SCALE
  2
AcDbScale
  3
ObjectDBX Classes
 90
     1153
280
     0
281
     0
  0
CLASS
  1
TABLESTYLE
  2
AcDbTableStyle
  3
ObjectDBX Classes
 90
     4095
280
     0
281
     0
  0
CLASS
  1
MLEADERSTYLE
  2
AcDbMLeaderStyle
  3
ACDB_MLEADERSTYLE_CLASS
 90
     4095
280
     0
281
     0
  0
CLASS
  1
SUN
  2
AcDbSun
  3
SCENEOE
 90
     1153
280
     0
281
     0
  0
CLASS
  1
ACDBPLACEHOLDER
  2
AcDbPlaceHolder
  3
ObjectDBX Classes
 90
        0
280
     0
281
     0
  0
CLASS
  1
LAYOUT
  2
AcDbLayout
  3
ObjectDBX Classes
 90
        0
280
     0
281
     0
  0
ENDSEC
  0
SECTION
  2
TABLES
  0
TABLE
  2
VPORT
  5
8
330
0
100
AcDbSymbolTable
 70
     1
  0
VPORT
  5
29
330
8
100
AcDbSymbolTableRecord
100
AcDbViewportTableRecord
  2
*Active
 70
     0
 10
0.0
 20
0.0
 11
1.0
 21
1.0
 12
139.7
 22
107.95
 13
0.0
 23
0.0
 14
10.0
 24
10.0
 15
10.0
 25
10.0
 16
0.0
 26
0.0
 36
1.0
 17
0.0
 27
0.0
 37
0.0
 40
215.9
 41
1.2941176471
 42
50.0
 43
0.0
 44
0.0
 50
0.0
 51
0.0
 71
     0
 72
  2000
 73
     1
 74
     3
 75
     0
 76
     0
 77
     0
 78
     0
281
     0
 65
     1
110
0.0
120
0.0
130
0.0
111
1.0
121
0.0
131
0.0
112
0.0
122
1.0
132
0.0
 79
     0
146
0.0
  0
ENDTAB
  0
TABLE
  2
LTYPE
  5
5
330
0
100
AcDbSymbolTable
 70
     6
  0
LTYPE
  5
14
330
5
100
AcDbSymbolTableRecord
100
AcDbLinetypeTableRecord
  2
ByBlock
 70
     0
  3

 72
    65
 73
     0
 40
0.0
  0
LTYPE
  5
15
330
5
100
AcDbSymbolTableRecord
100
AcDbLinetypeTableRecord
  2
ByLayer
 70
     0
  3

 72
    65
 73
     0
 40
0.0
  0
LTYPE
  5
16
330
5
100
AcDbSymbolTableRecord
100
AcDbLinetypeTableRecord
  2
Continuous
 70
     0
  3
Solid line
 72
    65
 73
     0
 40
0.0
  0
LTYPE
  5
6E
330
5
100
AcDbSymbolTableRecord
100
AcDbLinetypeTableRecord
  2
HIDDEN
 70
     0
  3
Hidden __ __ __ __ __ __ __ __ __ __ __ __ __ __
 72
    65
 73
     2
 40
1.905
 49
1.27
 74
     0
 49
-0.635
 74
     0
  0
LTYPE
  5
6F
330
5
100
AcDbSymbolTableRecord
100
AcDbLinetypeTableRecord
  2
PHANTOM
 70
     0
  3
Phantom ______  __  __  ______  __  __  ______
 72
    65
 73
     6
 40
12.7
 49
6.35
 74
     0
 49
-1.27
 74
     0
 49
1.27
 74
     0
 49
-1.27
 74
     0
 49
1.27
 74
     0
 49
-1.27
 74
     0
  0
LTYPE
  5
70
330
5
100
AcDbSymbolTableRecord
100
AcDbLinetypeTableRecord
  2
CENTER
 70
     0
  3
Center ____ _ ____ _ ____ _ ____ _ ____ _ ____
 72
    65
 73
     4
 40
10.16
 49
6.35
 74
     0
 49
-1.27
 74
     0
 49
1.27
 74
     0
 49
-1.27
 74
     0
  0
LTYPE
  5
71
330
5
100
AcDbSymbolTableRecord
100
AcDbLinetypeTableRecord
  2
CENTERX2
 70
     0
  3
Center (2x) ________  __  ________  __  _____
 72
    65
 73
     4
 40
20.32
 49
12.7
 74
     0
 49
-2.54
 74
     0
 49
2.54
 74
     0
 49
-2.54
 74
     0
  0
LTYPE
  5
72
330
5
100
AcDbSymbolTableRecord
100
AcDbLinetypeTableRecord
  2
DOT2
 70
     0
  3
Dot (.5x) ........................................
 72
    65
 73
     2
 40
0.635
 49
0.0
 74
     0
 49
-0.635
 74
     0
  0
ENDTAB
  0
TABLE
  2
LAYER
  5
2
330
0
100
AcDbSymbolTable
 70
    17
  0
LAYER
  5
10
330
2
100
AcDbSymbolTableRecord
100
AcDbLayerTableRecord
  2
0
 70
     0
 62
     7
  6
Continuous
370
    -3
390
F
  0
LAYER
  5
73
330
2
100
AcDbSymbolTableRecord
100
AcDbLayerTableRecord
  2
FORMAT
 70
     0
 62
     7
  6
Continuous
370
    -3
390
F
  0
LAYER
  5
74
330
2
100
AcDbSymbolTableRecord
100
AcDbLayerTableRecord
  2
YARDIMCI_GEOMETRI
 70
     0
 62
    -6
  6
Continuous
290
     0
370
    -3
390
F
  0
LAYER
  5
75
330
2
100
AcDbSymbolTableRecord
100
AcDbLayerTableRecord
  2
SAYFA_CERCEVESI
 70
     0
 62
     7
  6
Continuous
370
    25
390
F
  0
LAYER
  5
76
330
2
100
AcDbSymbolTableRecord
100
AcDbLayerTableRecord
  2
ANTET
 70
     0
 62
     7
  6
Continuous
370
    -3
390
F
  0
LAYER
  5
77
330
2
100
AcDbSymbolTableRecord
100
AcDbLayerTableRecord
  2
OLCU
 70
     0
 62
   150
  6
Continuous
370
    -3
390
F
  0
LAYER
  5
78
330
2
100
AcDbSymbolTableRecord
100
AcDbLayerTableRecord
  2
METIN
 70
     0
 62
    96
  6
Continuous
370
    -3
390
F
  0
LAYER
  5
79
330
2
100
AcDbSymbolTableRecord
100
AcDbLayerTableRecord
  2
BALON
 70
     0
 62
     5
  6
Continuous
370
    -3
390
F
  0
LAYER
  5
7A
330
2
100
AcDbSymbolTableRecord
100
AcDbLayerTableRecord
  2
VURGU
 70
     0
 62
     7
  6
Continuous
370
    -3
390
F
  0
LAYER
  5
7B
330
2
100
AcDbSymbolTableRecord
100
AcDbLayerTableRecord
  2
SILIK
 70
     0
 62
     7
  6
Continuous
370
    -3
390
F
  0
LAYER
  5
7C
330
2
100
AcDbSymbolTableRecord
100
AcDbLayerTableRecord
  2
MODEL
 70
     0
 62
     7
  6
Continuous
370
    -3
390
F
  0
LAYER
  5
7D
330
2
100
AcDbSymbolTableRecord
100
AcDbLayerTableRecord
  2
DETAYLANDıRMA
 70
     0
 62
   190
  6
Continuous
370
    -3
390
F
  0
LAYER
  5
7E
330
2
100
AcDbSymbolTableRecord
100
AcDbLayerTableRecord
  2
TOLERANS
 70
     0
 62
   230
  6
Continuous
370
    -3
390
F
  0
LAYER
  5
7F
330
2
100
AcDbSymbolTableRecord
100
AcDbLayerTableRecord
  2
MERKEZ_CIZGILERI
 70
     0
 62
    30
  6
Continuous
370
    -3
390
F
  0
LAYER
  5
80
330
2
100
AcDbSymbolTableRecord
100
AcDbLayerTableRecord
  2
KESIT-DETAY_CIZGILERI
 70
     0
 62
     7
  6
Continuous
370
    -3
390
F
  0
LAYER
  5
81
330
2
100
AcDbSymbolTableRecord
100
AcDbLayerTableRecord
  2
\U+041E\U+0421\U+0415\U+0412\U+042B\U+0415
 70
     0
 62
     7
  6
Continuous
370
    -3
390
F
  0
LAYER
  5
82
330
2
100
AcDbSymbolTableRecord
100
AcDbLayerTableRecord
  2
\U+0412\U+041E\U+0414\U+042F\U+041D\U+042B\U+0415_\U+0417\U+041D\U+0410\U+041A\U+0418
 70
     0
 62
    11
  6
Continuous
370
    -3
390
F
  0
ENDTAB
  0
TABLE
  2
STYLE
  5
3
330
0
100
AcDbSymbolTable
 70
     1
  0
STYLE
  5
11
330
3
100
AcDbSymbolTableRecord
100
AcDbTextStyleTableRecord
  2
Standard
 70
     0
 40
0.0
 41
1.0
 50
0.0
 71
     0
 42
3.5
  3
txt
  4

  0
ENDTAB
  0
TABLE
  2
VIEW
  5
6
330
0
100
AcDbSymbolTable
 70
     0
  0
ENDTAB
  0
TABLE
  2
UCS
  5
7
330
0
100
AcDbSymbolTable
 70
     0
  0
ENDTAB
  0
TABLE
  2
APPID
  5
9
330
0
100
AcDbSymbolTable
 70
     1
  0
APPID
  5
12
330
9
100
AcDbSymbolTableRecord
100
AcDbRegAppTableRecord
  2
ACAD
 70
     0
  0
ENDTAB
  0
TABLE
  2
DIMSTYLE
  5
A
330
0
100
AcDbSymbolTable
 70
     1
100
AcDbDimStyleTable
  0
DIMSTYLE
105
27
330
A
100
AcDbSymbolTableRecord
100
AcDbDimStyleTableRecord
  2
ISO-25
 70
     0
 41
2.5
 42
0.625
 43
3.75
 44
1.25
 73
     0
 74
     0
 77
     1
 78
     8
140
2.5
141
2.5
143
0.0393700787
147
0.625
171
     3
172
     1
178
     0
271
     2
272
     2
274
     3
278
    44
283
     0
284
     8
340
11
  0
ENDTAB
  0
TABLE
  2
BLOCK_RECORD
  5
1
330
0
100
AcDbSymbolTable
 70
     3
  0
BLOCK_RECORD
  5
1F
330
1
100
AcDbSymbolTableRecord
100
AcDbBlockTableRecord
  2
*Model_Space
340
22
  0
BLOCK_RECORD
  5
1B
330
1
100
AcDbSymbolTableRecord
100
AcDbBlockTableRecord
  2
*Paper_Space
340
1E
  0
BLOCK_RECORD
  5
23
330
1
100
AcDbSymbolTableRecord
100
AcDbBlockTableRecord
  2
*Paper_Space0
340
26
  0
BLOCK_RECORD
  5
94
330
1
100
AcDbSymbolTableRecord
100
AcDbBlockTableRecord
  2
SW_CENTERMARKSYMBOL_0
340
0
102
{BLKREFS
331
9F
102
}
  0
BLOCK_RECORD
  5
A5
330
1
100
AcDbSymbolTableRecord
100
AcDbBlockTableRecord
  2
SW_CENTERMARKSYMBOL_1
340
0
102
{BLKREFS
331
B0
102
}
  0
ENDTAB
  0
ENDSEC
  0
SECTION
  2
BLOCKS
  0
BLOCK
  5
20
330
1F
100
AcDbEntity
  8
0
100
AcDbBlockBegin
  2
*Model_Space
 70
     0
 10
0.0
 20
0.0
 30
0.0
  3
*Model_Space
  1

  0
ENDBLK
  5
21
330
1F
100
AcDbEntity
  8
0
100
AcDbBlockEnd
  0
BLOCK
  5
1C
330
1B
100
AcDbEntity
 67
     1
  8
0
100
AcDbBlockBegin
  2
*Paper_Space
 70
     0
 10
0.0
 20
0.0
 30
0.0
  3
*Paper_Space
  1

  0
ENDBLK
  5
1D
330
1B
100
AcDbEntity
 67
     1
  8
0
100
AcDbBlockEnd
  0
BLOCK
  5
24
330
23
100
AcDbEntity
  8
0
100
AcDbBlockBegin
  2
*Paper_Space0
 70
     0
 10
0.0
 20
0.0
 30
0.0
  3
*Paper_Space0
  1

  0
ENDBLK
  5
25
330
23
100
AcDbEntity
  8
0
100
AcDbBlockEnd
  0
BLOCK
  5
95
330
94
100
AcDbEntity
  8
0
100
AcDbBlockBegin
  2
SW_CENTERMARKSYMBOL_0
 70
     0
 10
0.0
 20
0.0
 30
0.0
  3
SW_CENTERMARKSYMBOL_0
  1

  0
LINE
  5
97
330
94
100
AcDbEntity
  8
FORMAT
 62
     0
100
AcDbLine
 10
0.0
 20
0.0
 30
0.0
 11
0.0
 21
2.5
 31
0.0
  0
LINE
  5
98
330
94
100
AcDbEntity
  8
FORMAT
 62
     0
100
AcDbLine
 10
0.0
 20
0.0
 30
0.0
 11
-2.5
 21
0.0
 31
0.0
  0
LINE
  5
99
330
94
100
AcDbEntity
  8
FORMAT
 62
     0
100
AcDbLine
 10
0.0
 20
0.0
 30
0.0
 11
0.0
 21
-2.5
 31
0.0
  0
LINE
  5
9A
330
94
100
AcDbEntity
  8
FORMAT
 62
     0
100
AcDbLine
 10
0.0
 20
0.0
 30
0.0
 11
2.5
 21
0.0
 31
0.0
  0
LINE
  5
9B
330
94
100
AcDbEntity
  8
FORMAT
 62
     0
100
AcDbLine
 10
0.0
 20
5.0
 30
0.0
 11
0.0
 21
102.5
 31
0.0
  0
LINE
  5
9C
330
94
100
AcDbEntity
  8
FORMAT
 62
     0
100
AcDbLine
 10
-5.0
 20
0.0
 30
0.0
 11
-102.5
 21
0.0
 31
0.0
  0
LINE
  5
9D
330
94
100
AcDbEntity
  8
FORMAT
 62
     0
100
AcDbLine
 10
0.0
 20
-5.0
 30
0.0
 11
0.0
 21
-102.5
 31
0.0
  0
LINE
  5
9E
330
94
100
AcDbEntity
  8
FORMAT
 62
     0
100
AcDbLine
 10
5.0
 20
0.0
 30
0.0
 11
102.5
 21
0.0
 31
0.0
  0
ENDBLK
  5
96
330
94
100
AcDbEntity
  8
0
100
AcDbBlockEnd
  0
BLOCK
  5
A6
330
A5
100
AcDbEntity
  8
0
100
AcDbBlockBegin
  2
SW_CENTERMARKSYMBOL_1
 70
     0
 10
0.0
 20
0.0
 30
0.0
  3
SW_CENTERMARKSYMBOL_1
  1

  0
LINE
  5
A8
330
A5
100
AcDbEntity
  8
FORMAT
 62
     0
100
AcDbLine
 10
0.0
 20
0.0
 30
0.0
 11
0.0
 21
2.5
 31
0.0
  0
LINE
  5
A9
330
A5
100
AcDbEntity
  8
FORMAT
 62
     0
100
AcDbLine
 10
0.0
 20
0.0
 30
0.0
 11
-2.5
 21
0.0
 31
0.0
  0
LINE
  5
AA
330
A5
100
AcDbEntity
  8
FORMAT
 62
     0
100
AcDbLine
 10
0.0
 20
0.0
 30
0.0
 11
0.0
 21
-2.5
 31
0.0
  0
LINE
  5
AB
330
A5
100
AcDbEntity
  8
FORMAT
 62
     0
100
AcDbLine
 10
0.0
 20
0.0
 30
0.0
 11
2.5
 21
0.0
 31
0.0
  0
LINE
  5
AC
330
A5
100
AcDbEntity
  8
FORMAT
 62
     0
100
AcDbLine
 10
0.0
 20
5.0
 30
0.0
 11
0.0
 21
102.5
 31
0.0
  0
LINE
  5
AD
330
A5
100
AcDbEntity
  8
FORMAT
 62
     0
100
AcDbLine
 10
-5.0
 20
0.0
 30
0.0
 11
-102.5
 21
0.0
 31
0.0
  0
LINE
  5
AE
330
A5
100
AcDbEntity
  8
FORMAT
 62
     0
100
AcDbLine
 10
0.0
 20
-5.0
 30
0.0
 11
0.0
 21
-102.5
 31
0.0
  0
LINE
  5
AF
330
A5
100
AcDbEntity
  8
FORMAT
 62
     0
100
AcDbLine
 10
5.0
 20
0.0
 30
0.0
 11
102.5
 21
0.0
 31
0.0
  0
ENDBLK
  5
A7
330
A5
100
AcDbEntity
  8
0
100
AcDbBlockEnd
  0
ENDSEC
  0
SECTION
  2
ENTITIES
  0
LINE
  5
83
330
1F
100
AcDbEntity
  8
0
  6
Continuous
 62
     7
370
    25
100
AcDbLine
 10
42.7500135899
 20
293.5492101554
 30
0.0
 11
42.7500135899
 21
-10.5067041274
 31
0.0
  0
LINE
  5
84
330
1F
100
AcDbEntity
  8
0
  6
Continuous
 62
     7
370
    25
100
AcDbLine
 10
242.7500165701
 20
-10.5067041274
 30
0.0
 11
242.7500165701
 21
293.5492101554
 31
0.0
  0
LINE
  5
85
330
1F
100
AcDbEntity
  8
0
  6
Continuous
 62
     7
370
    25
100
AcDbLine
 10
242.7500165701
 20
293.5492101554
 30
0.0
 11
242.7500165701
 21
419.493288124
 31
0.0
  0
LINE
  5
86
330
1F
100
AcDbEntity
  8
0
  6
Continuous
 62
     7
370
    25
100
AcDbLine
 10
242.7500165701
 20
-210.5067071077
 30
0.0
 11
242.7500165701
 21
-10.5067041274
 31
0.0
  0
LINE
  5
87
330
1F
100
AcDbEntity
  8
0
  6
Continuous
 62
     7
370
    25
100
AcDbLine
 10
42.7500135899
 20
-10.5067041274
 30
0.0
 11
42.7500135899
 21
-210.5067071077
 31
0.0
  0
LINE
  5
88
330
1F
100
AcDbEntity
  8
0
  6
Continuous
 62
     7
370
    25
100
AcDbLine
 10
42.7500135899
 20
419.493288124
 30
0.0
 11
42.7500135899
 21
293.5492101554
 31
0.0
  0
LWPOLYLINE
  5
89
330
1F
100
AcDbEntity
  8
0
  6
Continuous
 62
     7
370
    25
100
AcDbPolyline
 90
      100
 70
   128
 43
0.0
 10
142.75001508
 20
355.8453026656
 10
137.1623678767
 20
355.719894493
 10
131.5972195641
 20
355.3441468123
 10
126.076981023
 20
354.7195497397
 10
120.6238768697
 20
353.8486662749
 10
115.2598686219
 20
352.7349534873
 10
110.0065536499
 20
351.3829413298
 10
104.8850841523
 20
349.7979942206
 10
99.9160833359
 20
347.9866090659
 10
95.1195597351
 20
345.9560576323
 10
90.5148252547
 20
343.714386547
 10
86.1204281152
 20
341.2707749251
 10
81.9540559948
 20
338.6349979285
 10
78.0324838758
 20
335.8177247886
 10
74.3715144396
 20
332.8301611785
 10
70.9858737588
 20
329.6845260505
 10
67.8892038465
 20
326.3932767752
 10
65.0939769745
 20
322.9698840026
 10
62.611436069
 20
319.4279375914
 10
60.4515872598
 20
315.7818022612
 10
58.6231253744
 20
312.0462003592
 10
57.1334190369
 20
308.2360926513
 10
55.9884510637
 20
304.366797531
 10
55.1928482652
 20
300.4539910201
 10
54.74979949
 20
296.5133491401
 10
54.6611077786
 20
292.5608459357
 10
54.9271084071
 20
288.6122468356
 10
55.546743393
 20
284.6835556868
 10
56.5175167919
 20
280.790537918
 10
57.8355244995
 20
276.9489291552
 10
59.4954393506
 20
273.1741371993
 10
61.4906005264
 20
269.4814208392
 10
63.8129613996
 20
265.8855918292
 10
66.4531789422
 20
262.4011639003
 10
69.4006137252
 20
259.0421441439
 10
72.6433969736
 20
255.8220926169
 10
76.1684752703
 20
252.7539435271
 10
79.9616552592
 20
249.8500648383
 10
84.0076669753
 20
247.1221390609
 10
88.2902085483
 20
244.5811632518
 10
92.7920393348
 20
242.2373596076
 10
97.4950357974
 20
240.1001754645
 10
102.3802585602
 20
238.1782236937
 10
107.4280343652
 20
236.4792230967
 10
112.6180398912
 20
235.0100282077
 10
117.9293762595
 20
233.7765398864
 10
123.3406565786
 20
232.7837351207
 10
128.8300925568
 20
232.0356074218
 10
134.3755773902
 20
231.5351966266
 10
139.9547842499
 20
231.2844696883
 10
145.5452459101
 20
231.2844696883
 10
151.1244527698
 20
231.5351966266
 10
156.6699376032
 20
232.0356074218
 10
162.1593735814
 20
232.7837351207
 10
167.5706539005
 20
233.7765398864
 10
172.8819902689
 20
235.0100282077
 10
178.0719957948
 20
236.4792230967
 10
183.1197715998
 20
238.1782236937
 10
188.0049943626
 20
240.1001754645
 10
192.7079908252
 20
242.2373596076
 10
197.2098216117
 20
244.5811632518
 10
201.4923631847
 20
247.1221390609
 10
205.5383749009
 20
249.8500648383
 10
209.3315548897
 20
252.7539435271
 10
212.8566331864
 20
255.8220926169
 10
216.0994164348
 20
259.0421441439
 10
219.0468512178
 20
262.4011639003
 10
221.6870687604
 20
265.8855918292
 10
224.0094296337
 20
269.4814208392
 10
226.0045908094
 20
273.1741371993
 10
227.6645056606
 20
276.9489291552
 10
228.9825133682
 20
280.790537918
 10
229.953286767
 20
284.6835556868
 10
230.572921753
 20
288.6122468356
 10
230.8389223814
 20
292.5608459357
 10
230.75023067
 20
296.5133491401
 10
230.3071818948
 20
300.4539910201
 10
229.5115790964
 20
304.366797531
 10
228.3666111231
 20
308.2360926513
 10
226.8769047857
 20
312.0462003592
 10
225.0484429002
 20
315.7818022612
 10
222.888594091
 20
319.4279375914
 10
220.4060531855
 20
322.9698840026
 10
217.6108263135
 20
326.3932767752
 10
214.5141564012
 20
329.6845260505
 10
211.1285157204
 20
332.8301611785
 10
207.4675462842
 20
335.8177247886
 10
203.5459741652
 20
338.6349979285
 10
199.3796020449
 20
341.2707749251
 10
194.9852049053
 20
343.714386547
 10
190.3804704249
 20
345.9560576323
 10
185.5839468241
 20
347.9866090659
 10
180.6149460078
 20
349.7979942206
 10
175.4934765101
 20
351.3829413298
 10
170.2401615382
 20
352.7349534873
 10
164.8761532903
 20
353.8486662749
 10
159.423049137
 20
354.7195497397
 10
153.902810596
 20
355.3441468123
 10
148.3376622834
 20
355.719894493
 10
142.75001508
 20
355.8453026656
  0
LWPOLYLINE
  5
8A
330
1F
100
AcDbEntity
  8
0
  6
Continuous
 62
     7
370
    25
100
AcDbPolyline
 90
      107
 70
   128
 43
0.0
 10
142.75001508
 20
364.2598691825
 10
136.8259522766
 20
364.1357127074
 10
130.9226980135
 20
363.7636009101
 10
125.0609881878
 20
363.1448450927
 10
119.2614096851
 20
362.2815910224
 10
113.5443389118
 20
361.1769977454
 10
107.9298533202
 20
359.8347607497
 10
102.4376727343
 20
358.2597676162
 10
97.0870904327
 20
356.4574423674
 10
91.8969042302
 20
354.4341627005
 10
86.8853382469
 20
352.1970215682
 10
82.07000193
 20
349.7538867835
 10
77.4678043723
 20
347.1133414153
 10
73.0949096084
 20
344.2846241835
 10
68.9666844607
 20
341.2776890639
 10
65.097627759
 20
338.1031456832
 10
61.5013293624
 20
334.7720805053
 10
58.190418005
 20
331.2962356452
 10
55.1765240431
 20
327.6877704505
 10
52.4702347517
 20
323.9594403151
 10
50.0810570717
 20
320.1242390517
 10
48.0173803568
 20
316.1956969146
 10
46.286454022
 20
312.1876421813
 10
44.8943651915
 20
308.1140819434
 10
43.8459939957
 20
303.9893809203
 10
43.145028472
 20
299.8280230407
 10
42.7939347625
 20
295.6446114425
 10
42.7939347625
 20
291.4538088683
 10
43.145028472
 20
287.2703972701
 10
43.8459939957
 20
283.1090095881
 10
44.8943651915
 20
278.984308565
 10
46.286454022
 20
274.9107781295
 10
48.0173803568
 20
270.9027233962
 10
50.0810570717
 20
266.974181259
 10
52.4702347517
 20
263.1390097979
 10
55.1765240431
 20
259.4106498603
 10
58.190418005
 20
255.8021846656
 10
61.5013293624
 20
252.3263398055
 10
65.097627759
 20
248.9952746276
 10
68.9666844607
 20
245.8207014445
 10
73.0949096084
 20
242.8137961272
 10
77.4678043723
 20
239.9850788955
 10
82.07000193
 20
237.3445037249
 10
86.8853382469
 20
234.9013689402
 10
91.8969042302
 20
232.6642278079
 10
97.0870904327
 20
230.640948141
 10
102.4376727343
 20
228.8386526946
 10
107.9298533202
 20
227.2636297587
 10
113.5443389118
 20
225.9214523677
 10
119.2614096851
 20
224.816799486
 10
125.0609881878
 20
223.9536050204
 10
130.9226980135
 20
223.334849203
 10
136.8259522766
 20
222.9627076033
 10
142.75001508
 20
222.838521326
 10
148.6740778834
 20
222.9627076033
 10
154.5773321465
 20
223.334849203
 10
160.4390419722
 20
223.9536050204
 10
166.238620475
 20
224.816799486
 10
171.9556912482
 20
225.9214523677
 10
177.5701768399
 20
227.2636297587
 10
183.0623574257
 20
228.8386526946
 10
188.4129397273
 20
230.640948141
 10
193.6031259299
 20
232.6642278079
 10
198.6146919132
 20
234.9013689402
 10
203.43002823
 20
237.3445037249
 10
208.0322257877
 20
239.9850788955
 10
212.4051205516
 20
242.8137961272
 10
216.5333456993
 20
245.8207014445
 10
220.402402401
 20
248.9952746276
 10
223.9987007976
 20
252.3263398055
 10
227.309612155
 20
255.8021846656
 10
230.3235061169
 20
259.4106498603
 10
233.0297954083
 20
263.1390097979
 10
235.4189730883
 20
266.974181259
 10
237.4826498032
 20
270.9027233962
 10
239.2135761381
 20
274.9107781295
 10
240.6056649685
 20
278.984308565
 10
241.6540361643
 20
283.1090095881
 10
242.355001688
 20
287.2703972701
 10
242.7060953975
 20
291.4538088683
 10
242.7060953975
 20
295.6446114425
 10
242.355001688
 20
299.8280230407
 10
241.6540361643
 20
303.9893809203
 10
240.6056649685
 20
308.1140819434
 10
239.2135761381
 20
312.1876421813
 10
237.4826498032
 20
316.1956969146
 10
235.4189730883
 20
320.1242390517
 10
233.0297954083
 20
323.9594403151
 10
230.3235061169
 20
327.6877704505
 10
227.309612155
 20
331.2962356452
 10
223.9987007976
 20
334.7720805053
 10
220.402402401
 20
338.1031456832
 10
216.5333456993
 20
341.2776890639
 10
212.4051205516
 20
344.2846241835
 10
208.0322257877
 20
347.1133414153
 10
203.43002823
 20
349.7538867835
 10
198.6146919132
 20
352.1970215682
 10
193.6031259299
 20
354.4341627005
 10
188.4129397273
 20
356.4574423674
 10
183.0623574257
 20
358.2597676162
 10
177.5701768399
 20
359.8347607497
 10
171.9556912482
 20
361.1769977454
 10
166.238620475
 20
362.2815910224
 10
160.4390419722
 20
363.1448450927
 10
154.5773321465
 20
363.7636009101
 10
148.6740778834
 20
364.1357127074
 10
142.75001508
 20
364.2598691825
  0
ELLIPSE
  5
8B
330
1F
100
AcDbEntity
  8
0
  6
Continuous
 62
     7
370
    25
100
AcDbEllipse
 10
142.75001508
 20
-10.5067071077
 30
0.0
 11
99.99999999999997
 21
0.0
 31
0.0
210
0.0
220
0.0
230
1.0
 40
0.4142135624
 41
3.141592653589793
 42
6.283185307179586
  0
LINE
  5
8C
330
1F
100
AcDbEntity
  8
0
  6
Continuous
 62
     7
370
    25
100
AcDbLine
 10
42.7500135899
 20
-210.5067071077
 30
0.0
 11
242.7500165701
 21
-210.5067071077
 31
0.0
  0
LINE
  5
8D
330
1F
100
AcDbEntity
  8
0
  6
Continuous
 62
     7
370
    25
100
AcDbLine
 10
42.7500135899
 20
419.493288124
 30
0.0
 11
242.7500165701
 21
419.493288124
 31
0.0
  0
LINE
  5
8E
330
1F
100
AcDbEntity
  8
0
  6
Continuous
 62
     7
370
    25
100
AcDbLine
 10
242.7500165701
 20
670.2910590482
 30
0.0
 11
242.7500165701
 21
974.3469882321
 31
0.0
  0
LINE
  5
8F
330
1F
100
AcDbEntity
  8
0
  6
Continuous
 62
     7
370
    25
100
AcDbLine
 10
42.7500135899
 20
974.3469882321
 30
0.0
 11
42.7500135899
 21
670.2910590482
 31
0.0
  0
CIRCLE
  5
90
330
1F
100
AcDbEntity
  8
0
  6
Continuous
 62
     7
370
    25
100
AcDbCircle
 10
142.75001508
 20
974.3469882321
 30
0.0
 40
88.10000000000002
  0
CIRCLE
  5
91
330
1F
100
AcDbEntity
  8
0
  6
Continuous
 62
     7
370
    25
100
AcDbCircle
 10
142.75001508
 20
974.3469882321
 30
0.0
 40
100.0
  0
LWPOLYLINE
  5
92
330
1F
100
AcDbEntity
  8
0
  6
Continuous
 62
     7
370
    25
100
AcDbPolyline
 90
      107
 70
   128
 43
0.0
 10
142.75001508
 20
741.0017478776
 10
136.8259522766
 20
740.8775616002
 10
130.9226980135
 20
740.5054349017
 10
125.0609881878
 20
739.8866790843
 10
119.2614096851
 20
739.0234697175
 10
113.5443389118
 20
737.918831737
 10
107.9298533202
 20
736.576654346
 10
102.4376727343
 20
735.0016463113
 10
97.0870904327
 20
733.1993359637
 10
91.8969042302
 20
731.1760562968
 10
86.8853382469
 20
728.9389151645
 10
82.07000193
 20
726.4957654786
 10
77.4678043723
 20
723.8552201104
 10
73.0949096084
 20
721.0265028787
 10
68.9666844607
 20
718.019567759
 10
65.097627759
 20
714.8450243783
 10
61.5013293624
 20
711.5139592004
 10
58.190418005
 20
708.038084538
 10
55.1765240431
 20
704.4296491456
 10
52.4702347517
 20
700.7012892079
 10
50.0810570717
 20
696.8660879445
 10
48.0173803568
 20
692.9375756097
 10
46.286454022
 20
688.9294910741
 10
44.8943651915
 20
684.8559606385
 10
43.8459939957
 20
680.7312596154
 10
43.145028472
 20
676.5699017358
 10
42.7939347625
 20
672.3864603352
 10
42.7939347625
 20
668.1956875634
 10
43.145028472
 20
664.0122461629
 10
43.8459939957
 20
659.8508882832
 10
44.8943651915
 20
655.7261872601
 10
46.286454022
 20
651.6526568246
 10
48.0173803568
 20
647.644572289
 10
50.0810570717
 20
643.7160599542
 10
52.4702347517
 20
639.8808586907
 10
55.1765240431
 20
636.1524987531
 10
58.190418005
 20
632.5440633607
 10
61.5013293624
 20
629.0681886983
 10
65.097627759
 20
625.7371235204
 10
68.9666844607
 20
622.5625801396
 10
73.0949096084
 20
619.55564502
 10
77.4678043723
 20
616.7269277882
 10
82.07000193
 20
614.0863824201
 10
86.8853382469
 20
611.6432476354
 10
91.8969042302
 20
609.406106503
 10
97.0870904327
 20
607.3828268361
 10
102.4376727343
 20
605.5805015874
 10
107.9298533202
 20
604.0054786515
 10
113.5443389118
 20
602.6633012605
 10
119.2614096851
 20
601.5586781812
 10
125.0609881878
 20
600.6954539132
 10
130.9226980135
 20
600.0766980958
 10
136.8259522766
 20
599.7045862985
 10
142.75001508
 20
599.5804000211
 10
148.6740778834
 20
599.7045862985
 10
154.5773321465
 20
600.0766980958
 10
160.4390419722
 20
600.6954539132
 10
166.238620475
 20
601.5586781812
 10
171.9556912482
 20
602.6633012605
 10
177.5701768399
 20
604.0054786515
 10
183.0623574257
 20
605.5805015874
 10
188.4129397273
 20
607.3828268361
 10
193.6031259299
 20
609.406106503
 10
198.6146919132
 20
611.6432476354
 10
203.43002823
 20
614.0863824201
 10
208.0322257877
 20
616.7269277882
 10
212.4051205516
 20
619.55564502
 10
216.5333456993
 20
622.5625801396
 10
220.402402401
 20
625.7371235204
 10
223.9987007976
 20
629.0681886983
 10
227.309612155
 20
632.5440633607
 10
230.3235061169
 20
636.1524987531
 10
233.0297954083
 20
639.8808586907
 10
235.4189730883
 20
643.7160599542
 10
237.4826498032
 20
647.644572289
 10
239.2135761381
 20
651.6526568246
 10
240.6056649685
 20
655.7261872601
 10
241.6540361643
 20
659.8508882832
 10
242.355001688
 20
664.0122461629
 10
242.7060953975
 20
668.1956875634
 10
242.7060953975
 20
672.3864603352
 10
242.355001688
 20
676.5699017358
 10
241.6540361643
 20
680.7312596154
 10
240.6056649685
 20
684.8559606385
 10
239.2135761381
 20
688.9294910741
 10
237.4826498032
 20
692.9375756097
 10
235.4189730883
 20
696.8660879445
 10
233.0297954083
 20
700.7012892079
 10
230.3235061169
 20
704.4296491456
 10
227.309612155
 20
708.038084538
 10
223.9987007976
 20
711.5139592004
 10
220.402402401
 20
714.8450243783
 10
216.5333456993
 20
718.019567759
 10
212.4051205516
 20
721.0265028787
 10
208.0322257877
 20
723.8552201104
 10
203.43002823
 20
726.4957654786
 10
198.6146919132
 20
728.9389151645
 10
193.6031259299
 20
731.1760562968
 10
188.4129397273
 20
733.1993359637
 10
183.0623574257
 20
735.0016463113
 10
177.5701768399
 20
736.576654346
 10
171.9556912482
 20
737.918831737
 10
166.238620475
 20
739.0234697175
 10
160.4390419722
 20
739.8866790843
 10
154.5773321465
 20
740.5054349017
 10
148.6740778834
 20
740.8775616002
 10
142.75001508
 20
741.0017478776
  0
LWPOLYLINE
  5
93
330
1F
100
AcDbEntity
  8
0
  6
Continuous
 62
     7
370
    25
100
AcDbPolyline
 90
      100
 70
   128
 43
0.0
 10
142.75001508
 20
732.5871813607
 10
137.1623678767
 20
732.4617582869
 10
131.5972195641
 20
732.0859957051
 10
126.076981023
 20
731.4614135337
 10
120.6238768697
 20
730.5905151677
 10
115.2598686219
 20
729.4768023801
 10
110.0065536499
 20
728.1247753215
 10
104.8850841523
 20
726.5398878169
 10
99.9160833359
 20
724.728487761
 10
95.1195597351
 20
722.6979065251
 10
90.5148252547
 20
720.4562652421
 10
86.1204281152
 20
718.0126536202
 10
81.9540559948
 20
715.3768766236
 10
78.0324838758
 20
712.5595736813
 10
74.3715144396
 20
709.5720398736
 10
70.9858737588
 20
706.4263451409
 10
67.8892038465
 20
703.1351554704
 10
65.0939769745
 20
699.7117328954
 10
62.611436069
 20
696.1698162866
 10
60.4515872598
 20
692.5236809564
 10
58.6231253744
 20
688.788049252
 10
57.1334190369
 20
684.977941544
 10
55.9884510637
 20
681.1086762261
 10
55.1928482652
 20
677.1958697152
 10
54.74979949
 20
673.2552278352
 10
54.6611077786
 20
669.3026948285
 10
54.9271084071
 20
665.3540957284
 10
55.546743393
 20
661.4254045796
 10
56.5175167919
 20
657.5324166131
 10
57.8355244995
 20
653.690778048
 10
59.4954393506
 20
649.9160158944
 10
61.4906005264
 20
646.223269732
 10
63.8129613996
 20
642.627440722
 10
66.4531789422
 20
639.1430127931
 10
69.4006137252
 20
635.7840228391
 10
72.6433969736
 20
632.5639415097
 10
76.1684752703
 20
629.4957924199
 10
79.9616552592
 20
626.5919137311
 10
84.0076669753
 20
623.8639879537
 10
88.2902085483
 20
621.3230121446
 10
92.7920393348
 20
618.9792383027
 10
97.4950357974
 20
616.8420541596
 10
102.3802585602
 20
614.9200725865
 10
107.4280343652
 20
613.2210719895
 10
112.6180398912
 20
611.7518771005
 10
117.9293762595
 20
610.5183887792
 10
123.3406565786
 20
609.5255840135
 10
128.8300925568
 20
608.7774861169
 10
134.3755773902
 20
608.2770455193
 10
139.9547842499
 20
608.0263185811
 10
145.5452459101
 20
608.0263185811
 10
151.1244527698
 20
608.2770455193
 10
156.6699376032
 20
608.7774861169
 10
162.1593735814
 20
609.5255840135
 10
167.5706539005
 20
610.5183887792
 10
172.8819902689
 20
611.7518771005
 10
178.0719957948
 20
613.2210719895
 10
183.1197715998
 20
614.9200725865
 10
188.0049943626
 20
616.8420541596
 10
192.7079908252
 20
618.9792383027
 10
197.2098216117
 20
621.3230121446
 10
201.4923631847
 20
623.8639879537
 10
205.5383749009
 20
626.5919137311
 10
209.3315548897
 20
629.4957924199
 10
212.8566331864
 20
632.5639415097
 10
216.0994164348
 20
635.7840228391
 10
219.0468512178
 20
639.1430127931
 10
221.6870687604
 20
642.627440722
 10
224.0094296337
 20
646.223269732
 10
226.0045908094
 20
649.9160158944
 10
227.6645056606
 20
653.690778048
 10
228.9825133682
 20
657.5324166131
 10
229.953286767
 20
661.4254045796
 10
230.572921753
 20
665.3540957284
 10
230.8389223814
 20
669.3026948285
 10
230.75023067
 20
673.2552278352
 10
230.3071818948
 20
677.1958697152
 10
229.5115790964
 20
681.1086762261
 10
228.3666111231
 20
684.977941544
 10
226.8769047857
 20
688.788049252
 10
225.0484429002
 20
692.5236809564
 10
222.888594091
 20
696.1698162866
 10
220.4060531855
 20
699.7117328954
 10
217.6108263135
 20
703.1351554704
 10
214.5141564012
 20
706.4263451409
 10
211.1285157204
 20
709.5720398736
 10
207.4675462842
 20
712.5595736813
 10
203.5459741652
 20
715.3768766236
 10
199.3796020449
 20
718.0126536202
 10
194.9852049053
 20
720.4562652421
 10
190.3804704249
 20
722.6979065251
 10
185.5839468241
 20
724.728487761
 10
180.6149460078
 20
726.5398878169
 10
175.4934765101
 20
728.1247753215
 10
170.2401615382
 20
729.4768023801
 10
164.8761532903
 20
730.5905151677
 10
159.423049137
 20
731.4614135337
 10
153.902810596
 20
732.0859957051
 10
148.3376622834
 20
732.4617582869
 10
142.75001508
 20
732.5871813607
  0
INSERT
  5
9F
330
1F
100
AcDbEntity
  8
FORMAT
100
AcDbBlockReference
  2
SW_CENTERMARKSYMBOL_0
 10
142.75001508
 20
974.3469882321
 30
0.0
  0
LINE
  5
A0
330
1F
100
AcDbEntity
  8
0
  6
Continuous
 62
     7
370
    25
100
AcDbLine
 10
42.7500135899
 20
-553.8328087984
 30
0.0
 11
42.7500135899
 21
-857.8887379824
 31
0.0
  0
LINE
  5
A1
330
1F
100
AcDbEntity
  8
0
  6
Continuous
 62
     7
370
    25
100
AcDbLine
 10
242.7500165701
 20
-857.8887379824
 30
0.0
 11
242.7500165701
 21
-553.8328087984
 31
0.0
  0
CIRCLE
  5
A2
330
1F
100
AcDbEntity
  8
0
  6
Continuous
 62
     7
370
    25
100
AcDbCircle
 10
142.75001508
 20
-857.8887379824
 30
0.0
 40
88.10000000000002
  0
CIRCLE
  5
A3
330
1F
100
AcDbEntity
  8
0
  6
Continuous
 62
     7
370
    25
100
AcDbCircle
 10
142.75001508
 20
-857.8887379824
 30
0.0
 40
100.0
  0
LWPOLYLINE
  5
A4
330
1F
100
AcDbEntity
  8
0
  6
Continuous
 62
     7
370
    25
100
AcDbPolyline
 90
       55
 70
   128
 43
0.0
 10
42.7500135899
 20
-553.8328087984
 10
42.7939347625
 20
-551.7374373136
 10
43.145028472
 20
-547.5539959131
 10
43.8459939957
 20
-543.3926380335
 10
44.8943651915
 20
-539.2679370104
 10
46.286454022
 20
-535.1944065748
 10
48.0173803568
 20
-531.1863220392
 10
50.0810570717
 20
-527.2578097044
 10
52.4702347517
 20
-523.422608441
 10
55.1765240431
 20
-519.6942485033
 10
58.190418005
 20
-516.0858131109
 10
61.5013293624
 20
-512.6099384485
 10
65.097627759
 20
-509.2788732706
 10
68.9666844607
 20
-506.1043298899
 10
73.0949096084
 20
-503.0973947702
 10
77.4678043723
 20
-500.2686775385
 10
82.07000193
 20
-497.6281321703
 10
86.8853382469
 20
-495.1849973856
 10
91.8969042302
 20
-492.9478562532
 10
97.0870904327
 20
-490.9245765863
 10
102.4376727343
 20
-489.1222513376
 10
107.9298533202
 20
-487.5472284017
 10
113.5443389118
 20
-486.2050510107
 10
119.2614096851
 20
-485.1004279314
 10
125.0609881878
 20
-484.2372036634
 10
130.9226980135
 20
-483.618447846
 10
136.8259522766
 20
-483.2463360487
 10
142.75001508
 20
-483.1221497713
 10
148.6740778834
 20
-483.2463360487
 10
154.5773321465
 20
-483.618447846
 10
160.4390419722
 20
-484.2372036634
 10
166.238620475
 20
-485.1004279314
 10
171.9556912482
 20
-486.2050510107
 10
177.5701768399
 20
-487.5472284017
 10
183.0623574257
 20
-489.1222513376
 10
188.4129397273
 20
-490.9245765863
 10
193.6031259299
 20
-492.9478562532
 10
198.6146919132
 20
-495.1849973856
 10
203.43002823
 20
-497.6281321703
 10
208.0322257877
 20
-500.2686775385
 10
212.4051205516
 20
-503.0973947702
 10
216.5333456993
 20
-506.1043298899
 10
220.402402401
 20
-509.2788732706
 10
223.9987007976
 20
-512.6099384485
 10
227.309612155
 20
-516.0858131109
 10
230.3235061169
 20
-519.6942485033
 10
233.0297954083
 20
-523.422608441
 10
235.4189730883
 20
-527.2578097044
 10
237.4826498032
 20
-531.1863220392
 10
239.2135761381
 20
-535.1944065748
 10
240.6056649685
 20
-539.2679370104
 10
241.6540361643
 20
-543.3926380335
 10
242.355001688
 20
-547.5539959131
 10
242.7060953975
 20
-551.7374373136
 10
242.7500165701
 20
-553.8328087984
  0
INSERT
  5
B0
330
1F
100
AcDbEntity
  8
FORMAT
100
AcDbBlockReference
  2
SW_CENTERMARKSYMBOL_1
 10
142.75001508
 20
-857.8887379824
 30
0.0
  0
LINE
  5
B1
330
1F
100
AcDbEntity
  8
0
  6
Continuous
 62
     7
370
    25
100
AcDbLine
 10
708.0874993851
 20
230.9146526698
 30
0.0
 11
708.0874993851
 21
419.493288124
 31
0.0
  0
LINE
  5
B2
330
1F
100
AcDbEntity
  8
0
  6
Continuous
 62
     7
370
    25
100
AcDbLine
 10
708.0874993851
 20
-210.5067071077
 30
0.0
 11
708.0874993851
 21
-51.9280579444
 31
0.0
  0
LINE
  5
B3
330
1F
100
AcDbEntity
  8
0
  6
Continuous
 62
     7
370
    25
100
AcDbLine
 10
508.0874964049
 20
419.493288124
 30
0.0
 11
508.0874964049
 21
-210.5067071077
 31
0.0
  0
LINE
  5
B4
330
1F
100
AcDbEntity
  8
0
  6
Continuous
 62
     7
370
    25
100
AcDbLine
 10
841.4327382496
 20
364.2598691825
 30
0.0
 11
708.0874993851
 21
230.9146526698
 31
0.0
  0
LINE
  5
B5
330
1F
100
AcDbEntity
  8
0
  6
Continuous
 62
     7
370
    25
100
AcDbLine
 10
708.0874993851
 20
-51.9280579444
 30
0.0
 11
982.8540861061
 21
222.838521326
 31
0.0
  0
LINE
  5
B6
330
1F
100
AcDbEntity
  8
0
  6
Continuous
 62
     7
370
    25
100
AcDbLine
 10
608.087497895
 20
-210.5067071077
 30
0.0
 11
708.0874993851
 21
-210.5067071077
 31
0.0
  0
LINE
  5
B7
330
1F
100
AcDbEntity
  8
0
  6
Continuous
 62
     7
370
    25
100
AcDbLine
 10
508.0874964049
 20
-210.5067071077
 30
0.0
 11
608.087497895
 21
-210.5067071077
 31
0.0
  0
LINE
  5
B8
330
1F
100
AcDbEntity
  8
0
  6
Continuous
 62
     7
370
    25
100
AcDbLine
 10
608.087497895
 20
419.493288124
 30
0.0
 11
708.0874993851
 21
419.493288124
 31
0.0
  0
LINE
  5
B9
330
1F
100
AcDbEntity
  8
0
  6
Continuous
 62
     7
370
    25
100
AcDbLine
 10
508.0874964049
 20
419.493288124
 30
0.0
 11
608.087497895
 21
419.493288124
 31
0.0
  0
LWPOLYLINE
  5
BA
330
1F
100
AcDbEntity
  8
0
  6
Continuous
 62
     7
370
    25
100
AcDbPolyline
 90
       44
 70
   128
 43
0.0
 10
608.087497895
 20
-10.5067041274
 10
611.782647801
 20
-1.5858259555
 10
615.47275087
 20
7.3228630666
 10
619.1527658528
 20
16.2072184924
 10
622.8176673329
 20
25.0550660733
 10
626.4624494514
 20
33.8543507699
 10
630.0821333578
 20
42.5930324439
 10
633.6717765233
 20
51.2591901664
 10
637.2264727404
 20
59.8410073165
 10
640.7413698187
 20
68.3267119769
 10
644.2116639962
 20
76.7047408465
 10
647.6326204291
 20
84.9636498336
 10
650.9995601526
 20
93.0921736602
 10
654.3078861585
 20
101.0791960601
 10
657.553083395
 20
108.913779581
 10
660.7307150414
 20
116.5852549914
 10
663.8364411345
 20
124.0831616763
 10
666.8660222938
 20
131.3972178344
 10
669.815319722
 20
138.5174396876
 10
672.6803063801
 20
145.434111679
 10
675.4570632627
 20
152.1378162745
 10
678.1417980244
 20
158.6193445567
 10
680.7308524301
 20
164.869875038
 10
683.220687454
 20
170.880854452
 10
685.6078981807
 20
176.64408716
 10
687.889221256
 20
182.1517053489
 10
690.0615497878
 20
187.3961392287
 10
692.1219035437
 20
192.3702958468
 10
694.0674811056
 20
197.0673504714
 10
695.8956226161
 20
201.4808658007
 10
697.6038246801
 20
205.6048217658
 10
699.1897627166
 20
209.4336155299
 10
700.6512611559
 20
212.9620018843
 10
701.986330693
 20
216.1851230506
 10
703.1931459358
 20
219.0986576918
 10
704.2700603059
 20
221.6985526923
 10
705.2155985883
 20
223.9812913779
 10
706.0284718325
 20
225.9437147025
 10
706.7075699022
 20
227.5832000617
 10
707.2519689253
 20
228.8975122813
 10
707.6609163931
 20
229.884773815
 10
707.9338609627
 20
230.5437329654
 10
708.0704226544
 20
230.8734360579
 10
708.0874993851
 20
230.9146526698
  0
LWPOLYLINE
  5
BB
330
1F
100
AcDbEntity
  8
0
  6
Continuous
 62
     7
370
    25
100
AcDbPolyline
 90
       29
 70
   128
 43
0.0
 10
708.0874993851
 20
-51.9280579444
 10
708.046714907
 20
-51.9111749288
 10
707.7206700495
 20
-51.7761257049
 10
707.0696457675
 20
-51.5064593908
 10
706.0957505753
 20
-51.1030551549
 10
704.8021807721
 20
-50.5672392007
 10
703.1931459358
 20
-49.900754964
 10
701.2738987258
 20
-49.1057780143
 10
699.0506976297
 20
-48.1849011537
 10
696.5307920625
 20
-47.1411195155
 10
693.7224000147
 20
-45.9778454658
 10
690.6346857002
 20
-44.6988788005
 10
687.2777223041
 20
-43.3083769437
 10
683.6624547293
 20
-41.8108847495
 10
679.8006772449
 20
-40.2112748977
 10
675.7049887827
 20
-38.5147925969
 10
671.388740783
 20
-36.7269363757
 10
666.8660222938
 20
-34.8535623904
 10
662.1515780142
 20
-32.9007801171
 10
657.2607896676
 20
-30.8749523517
 10
652.2096089473
 20
-28.7826803085
 10
647.0145090869
 20
-26.6308036205
 10
641.6924364319
 20
-24.4263258334
 10
636.2607526978
 20
-22.1764591094
 10
630.7371753654
 20
-19.8885050174
 10
625.1397180757
 20
-17.5699737426
 10
619.4866384765
 20
-15.2283903714
 10
613.7963790832
 20
-12.8713991996
 10
608.087497895
 20
-10.5067041274
  0
LWPOLYLINE
  5
BC
330
1F
100
AcDbEntity
  8
0
  6
Continuous
 62
     7
370
    25
100
AcDbPolyline
 90
       55
 70
   128
 43
0.0
 10
841.4327382496
 20
364.2598691825
 10
841.556924527
 20
364.1357127074
 10
841.9290512254
 20
363.7636009101
 10
842.5478070429
 20
363.1448450927
 10
843.4110164097
 20
362.2815910224
 10
844.5156543901
 20
361.1769977454
 10
845.8578317812
 20
359.8347607497
 10
847.4328398159
 20
358.2597676162
 10
849.2351501634
 20
356.4574423674
 10
851.2584298303
 20
354.4341627005
 10
853.4955709627
 20
352.1970215682
 10
855.9387206486
 20
349.7538867835
 10
858.5792660167
 20
347.1133414153
 10
861.4079832485
 20
344.2846241835
 10
864.4149183681
 20
341.2776890639
 10
867.5894617489
 20
338.1031456832
 10
870.9205269268
 20
334.7720805053
 10
874.3964015892
 20
331.2962356452
 10
878.0048369816
 20
327.6877704505
 10
881.7331969192
 20
323.9594403151
 10
885.5683981827
 20
320.1242390517
 10
889.4969105175
 20
316.1956969146
 10
893.5049950531
 20
312.1876421813
 10
897.5785254886
 20
308.1140819434
 10
901.7032265117
 20
303.9893809203
 10
905.8645843914
 20
299.8280230407
 10
910.0480257919
 20
295.6446114425
 10
914.2387985637
 20
291.4538088683
 10
918.4222399643
 20
287.2703972701
 10
922.5835978439
 20
283.1090095881
 10
926.708298867
 20
278.984308565
 10
930.7818293026
 20
274.9107781295
 10
934.7899138382
 20
270.9027233962
 10
938.718426173
 20
266.974181259
 10
942.5536274364
 20
263.1390097979
 10
946.2819873741
 20
259.4106498603
 10
949.8904227665
 20
255.8021846656
 10
953.3662974289
 20
252.3263398055
 10
956.6973626068
 20
248.9952746276
 10
959.8719059875
 20
245.8207014445
 10
962.8788411072
 20
242.8137961272
 10
965.7075583389
 20
239.9850788955
 10
968.3481037071
 20
237.3445037249
 10
970.7912384918
 20
234.9013689402
 10
973.0283796242
 20
232.6642278079
 10
975.0516592911
 20
230.640948141
 10
976.8539845398
 20
228.8386526946
 10
978.4290074756
 20
227.2636297587
 10
979.7711848667
 20
225.9214523677
 10
980.875807946
 20
224.816799486
 10
981.739032214
 20
223.9536050204
 10
982.3577880314
 20
223.334849203
 10
982.7298998287
 20
222.9627076033
 10
982.8540861061
 20
222.838521326
 10
982.8540861061
 20
222.838521326
  0
LINE
  5
BD
330
1F
100
AcDbEntity
  8
0
  6
Continuous
 62
     7
370
    25
100
AcDbLine
 10
-186.2688696018
 20
-210.5067071077
 30
0.0
 11
-186.2688696018
 21
419.493288124
 31
0.0
  0
LINE
  5
BE
330
1F
100
AcDbEntity
  8
0
  6
Continuous
 62
     7
370
    25
100
AcDbLine
 10
-386.268872582
 20
-51.9280579444
 30
0.0
 11
-386.268872582
 21
-210.5067071077
 31
0.0
  0
LINE
  5
BF
330
1F
100
AcDbEntity
  8
0
  6
Continuous
 62
     7
370
    25
100
AcDbLine
 10
-386.268872582
 20
419.493288124
 30
0.0
 11
-386.268872582
 21
230.9146526698
 31
0.0
  0
LINE
  5
C0
330
1F
100
AcDbEntity
  8
0
  6
Continuous
 62
     7
370
    25
100
AcDbLine
 10
-661.0354593029
 20
222.838521326
 30
0.0
 11
-386.268872582
 21
-51.9280579444
 31
0.0
  0
LINE
  5
C1
330
1F
100
AcDbEntity
  8
0
  6
Continuous
 62
     7
370
    25
100
AcDbLine
 10
-386.268872582
 20
230.9146526698
 30
0.0
 11
-519.6141114464
 21
364.2598691825
 31
0.0
  0
LINE
  5
C2
330
1F
100
AcDbEntity
  8
0
  6
Continuous
 62
     7
370
    25
100
AcDbLine
 10
-386.268872582
 20
-210.5067071077
 30
0.0
 11
-186.2688696018
 21
-210.5067071077
 31
0.0
  0
LINE
  5
C3
330
1F
100
AcDbEntity
  8
0
  6
Continuous
 62
     7
370
    25
100
AcDbLine
 10
-386.268872582
 20
419.493288124
 30
0.0
 11
-186.2688696018
 21
419.493288124
 31
0.0
  0
LWPOLYLINE
  5
C4
330
1F
100
AcDbEntity
  8
0
  6
Continuous
 62
     7
370
    25
100
AcDbPolyline
 90
       44
 70
   128
 43
0.0
 10
-386.268872582
 20
230.9146526698
 10
-386.2517958513
 20
230.8734360579
 10
-386.1152341595
 20
230.5437329654
 10
-385.8422895899
 20
229.884773815
 10
-385.4333421221
 20
228.8975122813
 10
-384.8889430991
 20
227.5832000617
 10
-384.2098450294
 20
225.9437147025
 10
-383.3969717851
 20
223.9812913779
 10
-382.4514335027
 20
221.6985526923
 10
-381.3745191326
 20
219.0986576918
 10
-380.1677038899
 20
216.1851230506
 10
-378.8326343527
 20
212.9620018843
 10
-377.3711359134
 20
209.4336155299
 10
-375.785197877
 20
205.6048217658
 10
-374.0769958129
 20
201.4808658007
 10
-372.2488543024
 20
197.0673504714
 10
-370.3032767406
 20
192.3702958468
 10
-368.2429229846
 20
187.3961392287
 10
-366.0705944529
 20
182.1517053489
 10
-363.7892713776
 20
176.64408716
 10
-361.4020606509
 20
170.880854452
 10
-358.912225627
 20
164.869875038
 10
-356.3231712213
 20
158.6193445567
 10
-353.6384364596
 20
152.1378162745
 10
-350.8616795769
 20
145.434111679
 10
-347.9966929188
 20
138.5174396876
 10
-345.0473954907
 20
131.3972178344
 10
-342.0178143313
 20
124.0831616763
 10
-338.9120882383
 20
116.5852549914
 10
-335.7344565919
 20
108.913779581
 10
-332.4892593553
 20
101.0791960601
 10
-329.1809333494
 20
93.0921736602
 10
-325.8139936259
 20
84.9636498336
 10
-322.3930371931
 20
76.7047408465
 10
-318.9227430156
 20
68.3267119769
 10
-315.4078459373
 20
59.8410073165
 10
-311.8531497201
 20
51.2591901664
 10
-308.2635065546
 20
42.5930324439
 10
-304.6438226482
 20
33.8543507699
 10
-300.9990405297
 20
25.0550660733
 10
-297.3341390496
 20
16.2072184924
 10
-293.6541240668
 20
7.3228630666
 10
-289.9640209979
 20
-1.5858259555
 10
-286.2688710919
 20
-10.5067041274
  0
LWPOLYLINE
  5
C5
330
1F
100
AcDbEntity
  8
0
  6
Continuous
 62
     7
370
    25
100
AcDbPolyline
 90
       29
 70
   128
 43
0.0
 10
-286.2688710919
 20
-10.5067041274
 10
-291.9777522801
 20
-12.8713991996
 10
-297.6680116734
 20
-15.2283903714
 10
-303.3210912725
 20
-17.5699737426
 10
-308.9185485622
 20
-19.8885050174
 10
-314.4421258947
 20
-22.1764591094
 10
-319.8738096288
 20
-24.4263258334
 10
-325.1958822837
 20
-26.6308036205
 10
-330.3909821441
 20
-28.7826803085
 10
-335.4421628645
 20
-30.8749523517
 10
-340.332951211
 20
-32.9007801171
 10
-345.0473954907
 20
-34.8535623904
 10
-349.5701139798
 20
-36.7269363757
 10
-353.8863619795
 20
-38.5147925969
 10
-357.9820504418
 20
-40.2112748977
 10
-361.8438279262
 20
-41.8108847495
 10
-365.459095501
 20
-43.3083769437
 10
-368.8160588971
 20
-44.6988788005
 10
-371.9037732115
 20
-45.9778454658
 10
-374.7121652594
 20
-47.1411195155
 10
-377.2320708266
 20
-48.1849011537
 10
-379.4552719226
 20
-49.1057780143
 10
-381.3745191326
 20
-49.900754964
 10
-382.9835539689
 20
-50.5672392007
 10
-384.2771237722
 20
-51.1030551549
 10
-385.2510189643
 20
-51.5064593908
 10
-385.9020432463
 20
-51.7761257049
 10
-386.2280881038
 20
-51.9111749288
 10
-386.268872582
 20
-51.9280579444
  0
LWPOLYLINE
  5
C6
330
1F
100
AcDbEntity
  8
0
  6
Continuous
 62
     7
370
    25
100
AcDbPolyline
 90
       54
 70
   128
 43
0.0
 10
-661.0354593029
 20
222.838521326
 10
-660.9112730255
 20
222.9627076033
 10
-660.5391612282
 20
223.334849203
 10
-659.9204054108
 20
223.9536050204
 10
-659.0571811428
 20
224.816799486
 10
-657.9525580635
 20
225.9214523677
 10
-656.6103806725
 20
227.2636297587
 10
-655.0353577366
 20
228.8386526946
 10
-653.2330324879
 20
230.640948141
 10
-651.209752821
 20
232.6642278079
 10
-648.9726116886
 20
234.9013689402
 10
-646.5294769039
 20
237.3445037249
 10
-643.8889315358
 20
239.9850788955
 10
-641.060214304
 20
242.8137961272
 10
-638.0532791844
 20
245.8207014445
 10
-634.8787358036
 20
248.9952746276
 10
-631.5476706257
 20
252.3263398055
 10
-628.0717959633
 20
255.8021846656
 10
-624.4633605709
 20
259.4106498603
 10
-620.7350006333
 20
263.1390097979
 10
-616.8997993698
 20
266.974181259
 10
-612.971287035
 20
270.9027233962
 10
-608.9632024994
 20
274.9107781295
 10
-604.8896720639
 20
278.984308565
 10
-600.7649710408
 20
283.1090095881
 10
-596.6036131611
 20
287.2703972701
 10
-592.4201717606
 20
291.4538088683
 10
-588.2293989888
 20
295.6446114425
 10
-584.0459575882
 20
299.8280230407
 10
-579.8845997086
 20
303.9893809203
 10
-575.7598986855
 20
308.1140819434
 10
-571.6863682499
 20
312.1876421813
 10
-567.6782837143
 20
316.1956969146
 10
-563.7497713795
 20
320.1242390517
 10
-559.9145701161
 20
323.9594403151
 10
-556.1862101784
 20
327.6877704505
 10
-552.577774786
 20
331.2962356452
 10
-549.1019001236
 20
334.7720805053
 10
-545.7708349457
 20
338.1031456832
 10
-542.596291565
 20
341.2776890639
 10
-539.5893564453
 20
344.2846241835
 10
-536.7606392136
 20
347.1133414153
 10
-534.1200938454
 20
349.7538867835
 10
-531.6769441595
 20
352.1970215682
 10
-529.4398030272
 20
354.4341627005
 10
-527.4165233603
 20
356.4574423674
 10
-525.6142130127
 20
358.2597676162
 10
-524.039204978
 20
359.8347607497
 10
-522.697027587
 20
361.1769977454
 10
-521.5923896065
 20
362.2815910224
 10
-520.7291802397
 20
363.1448450927
 10
-520.1104244223
 20
363.7636009101
 10
-519.7382977238
 20
364.1357127074
 10
-519.6141114464
 20
364.2598691825
  0
LINE
  5
C7
330
1F
100
AcDbEntity
  8
0
  6
Continuous
 62
     7
370
    25
100
AcDbLine
 10
470.3833972146
 20
-458.4919691779
 30
0.0
 11
671.9859428859
 21
-807.6778232328
 31
0.0
  0
LINE
  5
C8
330
1F
100
AcDbEntity
  8
0
  6
Continuous
 62
     7
370
    25
100
AcDbLine
 10
788.8923681574
 20
-610.1656739281
 30
0.0
 11
643.5884948114
 21
-358.4919834951
 31
0.0
  0
LINE
  5
C9
330
1F
100
AcDbEntity
  8
0
  6
Continuous
 62
     7
370
    25
100
AcDbLine
 10
871.9859494729
 20
-944.1910616883
 30
0.0
 11
871.9859494729
 21
-429.7703540939
 31
0.0
  0
LINE
  5
CA
330
1F
100
AcDbEntity
  8
0
  6
Continuous
 62
     7
370
    25
100
AcDbLine
 10
671.9859402517
 20
-804.798822101
 30
0.0
 11
671.9859402517
 21
-944.1910616883
 31
0.0
  0
ELLIPSE
  5
CB
330
1F
100
AcDbEntity
  8
0
  6
Continuous
 62
     7
370
    25
100
AcDbEllipse
 10
771.9859448623
 20
-780.8828993112
 30
0.0
 11
99.63947603121767
 21
26.6983172046838
 31
0.0
210
0.0
220
0.0
230
1.0
 40
0.3177652438
 41
0.7004580896382465
 42
3.056652579830587
  0
ELLIPSE
  5
CC
330
1F
100
AcDbEntity
  8
0
  6
Continuous
 62
     7
370
    25
100
AcDbEllipse
 10
771.9859448623
 20
-780.8828993112
 30
0.0
 11
-64.4567985913036
 21
240.5560466245607
 31
0.0
210
0.0
220
0.0
230
1.0
 40
0.3178248929
 41
4.797329054143882
 42
5.412847070022957
  0
LWPOLYLINE
  5
CD
330
1F
100
AcDbEntity
  8
0
  6
Continuous
 62
     7
370
    25
100
AcDbPolyline
 90
      107
 70
   128
 43
0.0
 10
606.98594305
 20
-379.6182212993
 10
602.7091851107
 20
-382.0871332499
 10
598.2718206782
 20
-384.6488064247
 10
593.6894394767
 20
-387.2942408933
 10
588.9781369925
 20
-390.0141689755
 10
584.1544604735
 20
-392.7989282403
 10
579.235356904
 20
-395.6388930621
 10
574.2380999065
 20
-398.5239449572
 10
569.1802410091
 20
-401.4440360822
 10
564.079550377
 20
-404.3888705966
 10
558.9539404207
 20
-407.3481191101
 10
553.821415747
 20
-410.3113745749
 10
548.7000231098
 20
-413.2682420137
 10
543.6077144321
 20
-416.2083446104
 10
538.5623942222
 20
-419.1213449916
 10
533.58181684
 20
-421.9969923755
 10
528.6834310807
 20
-424.825212316
 10
523.8844486637
 20
-427.5960428098
 10
519.20175467
 20
-430.2998076862
 10
514.6517705656
 20
-432.9269280187
 10
510.250470006
 20
-435.4682536804
 10
506.0133524948
 20
-437.9148352029
 10
501.955258991
 20
-440.2580302554
 10
498.0904825446
 20
-442.4896831004
 10
494.432568099
 20
-444.6018995098
 10
490.9943862482
 20
-446.5872718567
 10
487.7879857224
 20
-448.4388182884
 10
484.824661877
 20
-450.1500891818
 10
482.1147828368
 20
-451.7149998611
 10
479.6679159364
 20
-453.1281226031
 10
477.4926222543
 20
-454.384440264
 10
475.596556712
 20
-455.4795561607
 10
473.9863627064
 20
-456.4096089124
 10
472.6677247938
 20
-457.1713880247
 10
471.6452317122
 20
-457.7621453131
 10
470.9225186273
 20
-458.1798534499
 10
470.5021143502
 20
-458.4230508476
 10
470.3854676785
 20
-458.4908264518
 10
470.5730158861
 20
-458.3829992087
 10
471.0641109649
 20
-458.0999416512
 10
471.8569827475
 20
-457.6426011995
 10
472.9488811518
 20
-457.0126370388
 10
474.3359787173
 20
-456.2122573941
 10
476.0133785071
 20
-455.2442393114
 10
477.975193133
 20
-454.1120047032
 10
480.2145342198
 20
-452.8195291
 10
482.7235308433
 20
-451.3713310134
 10
485.4933795806
 20
-449.7725403787
 10
488.5143576805
 20
-448.0287449501
 10
491.7758507228
 20
-446.1460960121
 10
495.2663802765
 20
-444.1311464072
 10
498.9737086093
 20
-441.991033425
 10
502.8848169545
 20
-439.7332723507
 10
506.9859489761
 20
-437.3657557085
 10
511.2627069154
 20
-434.8968194231
 10
515.7000608112
 20
-432.3351158308
 10
520.2824420127
 20
-429.6896813622
 10
524.9937550336
 20
-426.9698080323
 10
529.8174210159
 20
-424.1849940151
 10
534.7365245854
 20
-421.345077863
 10
539.7337921196
 20
-418.4600077158
 10
544.7916615536
 20
-415.5399470083
 10
549.8923521858
 20
-412.5951124939
 10
555.0179621421
 20
-409.6358639804
 10
560.150476279
 20
-406.6726024329
 10
565.2718689163
 20
-403.7157106593
 10
570.3641775939
 20
-400.7756080626
 10
575.4094978038
 20
-397.8626320162
 10
580.3900751861
 20
-394.9869602975
 10
585.2884609453
 20
-392.158740357
 10
590.0874433624
 20
-389.3879098632
 10
594.7701373561
 20
-386.6841449867
 10
599.3201214605
 20
-384.0570003195
 10
603.7214220201
 20
-381.5156989926
 10
607.9585395313
 20
-379.0691174701
 10
612.0166330351
 20
-376.7259224176
 10
615.8814094815
 20
-374.4942939074
 10
619.539323927
 20
-372.382077498
 10
622.9775057779
 20
-370.3966808163
 10
626.1839063037
 20
-368.5451343846
 10
629.147230149
 20
-366.8338634911
 10
631.8571091893
 20
-365.2689528119
 10
634.3039760897
 20
-363.8558544047
 10
636.4792697718
 20
-362.5995367438
 10
638.3753353141
 20
-361.5043965123
 10
639.9855293196
 20
-360.5743437606
 10
641.3041672323
 20
-359.8125646483
 10
642.3266603139
 20
-359.2217830251
 10
643.0493733987
 20
-358.8040992231
 10
643.4697776759
 20
-358.5609018254
 10
643.5864243475
 20
-358.4931262212
 10
643.39887614
 20
-358.6009534643
 10
642.9077810612
 20
-358.8840353566
 10
642.1149092786
 20
-359.3413514735
 10
641.0230108742
 20
-359.9713156342
 10
639.6359133087
 20
-360.7717196137
 10
637.9585240557
 20
-361.7397437791
 10
635.9967094297
 20
-362.8719783874
 10
633.757368343
 20
-364.1644539906
 10
631.2483611828
 20
-365.6126216596
 10
628.4785019088
 20
-367.2114305464
 10
625.4575238088
 20
-368.9551773053
 10
622.1960413033
 20
-370.8378809957
 10
618.7055012128
 20
-372.8527758483
 10
614.9981728801
 20
-374.9928888305
 10
611.0870750716
 20
-377.2506803223
 10
606.98594305
 20
-379.6182212993
  0
LWPOLYLINE
  5
CE
330
1F
100
AcDbEntity
  8
0
  6
Continuous
 62
     7
370
    25
100
AcDbPolyline
 90
      100
 70
   128
 43
0.0
 10
601.0359460051
 20
-383.0541980937
 10
596.9961952708
 20
-385.3863010288
 10
592.7953368909
 20
-387.811442648
 10
588.4502924959
 20
-390.3198784352
 10
583.9785474303
 20
-392.901465314
 10
579.3981069595
 20
-395.5458451035
 10
574.7274248177
 20
-398.2423397577
 10
569.9853143043
 20
-400.9801608707
 10
565.1908468684
 20
-403.748176213
 10
560.3633547425
 20
-406.5352732209
 10
555.5222360136
 20
-409.3303133766
 10
550.6870336486
 20
-412.1219405547
 10
545.8771878814
 20
-414.898955181
 10
541.112083628
 20
-417.6501408347
 10
536.4108818994
 20
-420.3645076054
 10
531.7925303384
 20
-423.0309939759
 10
527.27563151
 20
-425.639029577
 10
522.8783823163
 20
-428.1779374571
 10
518.618447555
 20
-430.6376397965
 10
514.5129967985
 20
-433.0081499131
 10
510.57858849
 20
-435.2799068677
 10
506.8310540395
 20
-437.4438180582
 10
503.2854556768
 20
-439.4911862115
 10
499.9561075256
 20
-441.4136972181
 10
496.8563701366
 20
-443.2036604469
 10
493.9987927342
 20
-444.8538049342
 10
491.3948023825
 20
-446.357580546
 10
489.0549463304
 20
-447.7088720304
 10
486.9886285935
 20
-448.9022728038
 10
485.204152101
 20
-449.9329146063
 10
483.7087292323
 20
-450.7967290987
 10
482.5083553766
 20
-451.4901558684
 10
481.6078774214
 20
-452.0104678937
 10
481.0109305325
 20
-452.3555403812
 10
480.7199170803
 20
-452.5240089442
 10
480.7359697612
 20
-452.5151448989
 10
481.0590675019
 20
-452.329031687
 10
481.6878984817
 20
-451.9664006343
 10
482.6199259871
 20
-451.428714604
 10
483.8513989487
 20
-450.7181375832
 10
485.3773756484
 20
-449.8375453393
 10
487.1916789388
 20
-448.7904539482
 10
489.2870068783
 20
-447.5810775882
 10
491.6549485366
 20
-446.2143194234
 10
494.2859589694
 20
-444.6956643924
 10
497.1694329761
 20
-443.0312339642
 10
500.2937670024
 20
-441.2277260676
 10
503.6463993118
 20
-439.2924162397
 10
507.2137843024
 20
-437.233050794
 10
510.9815885883
 20
-435.0579769497
 10
514.9346419382
 20
-432.7759278256
 10
519.0570276606
 20
-430.3960919321
 10
523.3321425313
 20
-427.9280785758
 10
527.7427450321
 20
-425.3817683418
 10
532.2711170228
 20
-422.7674630905
 10
536.8990069426
 20
-420.095675423
 10
541.6077727133
 20
-417.3771678422
 10
546.3784640583
 20
-414.6228808931
 10
551.1918844052
 20
-411.8439217615
 10
556.028622496
 20
-409.0514486906
 10
560.86919595
 20
-406.2567097624
 10
565.6941513624
 20
-403.4709851038
 10
570.4840484995
 20
-400.7054743485
 10
575.2195841044
 20
-397.9713224887
 10
579.8816998993
 20
-395.2795331845
 10
584.4516352682
 20
-392.6409626808
 10
588.9109509647
 20
-390.0661844519
 10
593.24172931
 20
-387.5656169456
 10
597.4265215088
 20
-385.1493106648
 10
601.4484793584
 20
-382.8270181269
 10
605.291376322
 20
-380.608035685
 10
608.93979719
 20
-378.5013616986
 10
612.3789958335
 20
-376.5154136477
 10
615.5951480864
 20
-374.6582471343
 10
618.5753201345
 20
-372.9373064517
 10
621.3074685158
 20
-371.359570597
 10
623.780640318
 20
-369.9313159823
 10
625.9848362014
 20
-368.6583415541
 10
627.9112053278
 20
-367.5457345419
 10
629.551976872
 20
-366.5980316896
 10
630.9005495838
 20
-365.8190458505
 10
631.9515128616
 20
-365.211853822
 10
632.7006046052
 20
-364.7789180158
 10
633.1448060467
 20
-364.5220560283
 10
633.2823522869
 20
-364.4421668633
 10
633.1126848798
 20
-364.5397450083
 10
632.6364939803
 20
-364.8142233825
 10
631.8556577572
 20
-365.2646410178
 10
630.7733635659
 20
-365.8890863875
 10
629.3939498977
 20
-366.6850806806
 10
627.7229906733
 20
-367.6493831075
 10
625.7671740707
 20
-368.7782068758
 10
623.5344131607
 20
-370.0669241077
 10
621.0336720511
 20
-371.5103122371
 10
618.2750449122
 20
-373.1026665399
 10
615.2696321703
 20
-374.8375065958
 10
612.0295233853
 20
-376.7078781823
 10
608.567771568
 20
-378.7062099193
 10
604.8983217275
 20
-380.824500526
 10
601.0359460051
 20
-383.0541980937
  0
LWPOLYLINE
  5
CF
330
1F
100
AcDbEntity
  8
0
  6
Continuous
 62
     7
370
    25
100
AcDbPolyline
 90
      107
 70
   128
 43
0.0
 10
701.2752656899
 20
-985.0114678877
 10
697.2105063986
 20
-982.5215505516
 10
693.4084003403
 20
-979.8969949925
 10
689.8823034562
 20
-977.1470199445
 10
686.6445917732
 20
-974.2812881795
 10
683.7066495503
 20
-971.3098631685
 10
681.0787909115
 20
-968.2431820891
 10
678.7702446995
 20
-965.0920166682
 10
676.7891268169
 20
-961.867432884
 10
675.1423862253
 20
-958.5807658749
 10
673.835812848
 20
-955.2435515088
 10
672.8739980574
 20
-951.8675157385
 10
672.2603162355
 20
-948.4645152951
 10
671.9969247741
 20
-945.0465011918
 10
672.0847482697
 20
-941.625485269
 10
672.5234758892
 20
-938.2134839289
 10
673.3115745412
 20
-934.8224770777
 10
674.4462678019
 20
-931.4643777116
 10
675.9235701599
 20
-928.1509817346
 10
677.7382975529
 20
-924.8939253794
 10
679.884072636
 20
-921.7046517525
 10
682.3533590256
 20
-918.5943606519
 10
685.1374797395
 20
-915.5739796741
 10
688.2266632942
 20
-912.6541193541
 10
691.6100522663
 20
-909.8450317268
 10
695.2757651959
 20
-907.1565867568
 10
699.2109300074
 20
-904.5982287137
 10
703.4017152905
 20
-902.1789398658
 10
707.8334015876
 20
-899.9072175751
 10
712.4904294676
 20
-897.7910465448
 10
717.3564392032
 20
-895.837857666
 10
722.4143336619
 20
-894.0545099595
 10
727.646353874
 20
-892.4472712824
 10
733.0341198623
 20
-891.021782592
 10
738.5587024233
 20
-889.7830530037
 10
744.2007008359
 20
-888.7354331789
 10
749.9402929104
 20
-887.8826046806
 10
755.7573219166
 20
-887.2275602042
 10
761.6313545353
 20
-886.7726005365
 10
767.541754616
 20
-886.5193284728
 10
773.467770104
 20
-886.4686290479
 10
779.3885857246
 20
-886.6206817021
 10
785.2833941055
 20
-886.974952677
 10
791.1314932415
 20
-887.5301965369
 10
796.9123444465
 20
-888.2844652926
 10
802.6056355738
 20
-889.2351084011
 10
808.1913837487
 20
-890.3787834109
 10
813.6499538083
 20
-891.7114787719
 10
818.9621768389
 20
-893.2285092732
 10
824.1093936405
 20
-894.9245472173
 10
829.0735245322
 20
-896.7936383872
 10
833.8371371823
 20
-898.82921079
 10
838.383493365
 20
-901.0241198975
 10
842.6966240346
 20
-903.3706554889
 10
846.7613833259
 20
-905.8605728251
 10
850.5634893842
 20
-908.4851283842
 10
854.0895862683
 20
-911.2351034322
 10
857.3272979513
 20
-914.1008351971
 10
860.2652401742
 20
-917.0722602082
 10
862.8930988131
 20
-920.1389412876
 10
865.2016450251
 20
-923.2901067085
 10
867.1827629077
 20
-926.5146904927
 10
868.8295034993
 20
-929.8013575018
 10
870.1360768765
 20
-933.1385718679
 10
871.0978916671
 20
-936.5146076382
 10
871.7115734891
 20
-939.9176080815
 10
871.9749649505
 20
-943.3356221848
 10
871.8871414549
 20
-946.7566381077
 10
871.4484138353
 20
-950.1686394478
 10
870.6603151834
 20
-953.559646299
 10
869.5256219227
 20
-956.917745665
 10
868.0483195646
 20
-960.2311416421
 10
866.2335921716
 20
-963.4881979973
 10
864.0878170886
 20
-966.6774716242
 10
861.6185306989
 20
-969.7877627247
 10
858.834409985
 20
-972.8081437026
 10
855.7452264304
 20
-975.7280040226
 10
852.3618374582
 20
-978.5370916499
 10
848.6961245286
 20
-981.2255366199
 10
844.7609597171
 20
-983.783894663
 10
840.5701744341
 20
-986.2031835109
 10
836.138488137
 20
-988.4749058016
 10
831.481460257
 20
-990.5910768319
 10
826.6154505213
 20
-992.5442657107
 10
821.5575560626
 20
-994.3276134172
 10
816.3255358505
 20
-995.9348520943
 10
810.9377698623
 20
-997.3603407847
 10
805.4131873013
 20
-998.599070373
 10
799.7711888886
 20
-999.6466901978
 10
794.0315968141
 20
-1000.4995186961
 10
788.214567808
 20
-1001.1545631725
 10
782.3405351892
 20
-1001.6095228402
 10
776.4301351086
 20
-1001.8627949039
 10
770.5041196205
 20
-1001.9134943287
 10
764.583304
 20
-1001.7614416746
 10
758.6884956191
 20
-1001.4071706997
 10
752.8403964831
 20
-1000.8519268397
 10
747.059545278
 20
-1000.0976580841
 10
741.3662541508
 20
-999.1470149756
 10
735.7805059758
 20
-998.0033399658
 10
730.3219359163
 20
-996.6706446048
 10
725.0097128856
 20
-995.1536141035
 10
719.862496084
 20
-993.4575761594
 10
714.8983651923
 20
-991.5884849895
 10
710.1347525423
 20
-989.5529125867
 10
705.5883963595
 20
-987.3580034792
 10
701.2752656899
 20
-985.0114678877
  0
LWPOLYLINE
  5
D0
330
1F
100
AcDbEntity
  8
0
  6
Continuous
 62
     7
370
    25
100
AcDbPolyline
 90
       51
 70
   128
 43
0.0
 10
675.7191816522
 20
-414.1439762765
 10
675.9235701599
 20
-413.7302741402
 10
677.7382975529
 20
-410.473217785
 10
679.884072636
 20
-407.2839441581
 10
682.3533590256
 20
-404.1736530575
 10
685.1374797395
 20
-401.1532720797
 10
688.2266632942
 20
-398.2334117596
 10
691.6100522663
 20
-395.4243241323
 10
695.2757651959
 20
-392.7358791624
 10
699.2109300074
 20
-390.1775211192
 10
703.4017152905
 20
-387.7582322713
 10
707.8334015876
 20
-385.4865099806
 10
712.4904294676
 20
-383.3703389503
 10
717.3564392032
 20
-381.4171500715
 10
722.4143336619
 20
-379.633802365
 10
727.646353874
 20
-378.0265636879
 10
733.0341198623
 20
-376.6010749976
 10
738.5587024233
 20
-375.3623454092
 10
744.2007008359
 20
-374.3147255845
 10
749.9402929104
 20
-373.4618970861
 10
755.7573219166
 20
-372.8068526097
 10
761.6313545353
 20
-372.3518929421
 10
767.541754616
 20
-372.0986208783
 10
773.467770104
 20
-372.0479214535
 10
779.3885857246
 20
-372.1999741076
 10
785.2833941055
 20
-372.5542450826
 10
791.1314932415
 20
-373.1094889425
 10
796.9123444465
 20
-373.8637576981
 10
802.6056355738
 20
-374.8144008066
 10
808.1913837487
 20
-375.9580758165
 10
813.6499538083
 20
-377.2907711774
 10
818.9621768389
 20
-378.8078016787
 10
824.1093936405
 20
-380.5038396228
 10
829.0735245322
 20
-382.3729307927
 10
833.8371371823
 20
-384.4085031955
 10
838.383493365
 20
-386.603412303
 10
842.6966240346
 20
-388.9499478945
 10
846.7613833259
 20
-391.4398652307
 10
850.5634893842
 20
-394.0644207897
 10
854.0895862683
 20
-396.8143958377
 10
857.3272979513
 20
-399.6801276027
 10
860.2652401742
 20
-402.6515526137
 10
862.8930988131
 20
-405.7182336931
 10
865.2016450251
 20
-408.8693991141
 10
867.1827629077
 20
-412.0939828983
 10
868.8295034993
 20
-415.3806499074
 10
870.1360768765
 20
-418.7178642734
 10
871.0978916671
 20
-422.0939000437
 10
871.7115734891
 20
-425.4969004871
 10
871.9749649505
 20
-428.9149145904
 10
871.9859494729
 20
-429.7703540939
  0
LWPOLYLINE
  5
D1
330
1F
100
AcDbEntity
  8
0
  6
Continuous
 62
     7
370
    25
100
AcDbPolyline
 90
      100
 70
   128
 43
0.0
 10
709.6898365799
 20
-980.1538395105
 10
705.8641971044
 20
-977.8005336678
 10
702.3048032221
 20
-975.3118957926
 10
699.0259950691
 20
-972.6979439255
 10
696.0409642797
 20
-969.969207055
 10
693.3617418034
 20
-967.1366694231
 10
690.9991106481
 20
-964.2117384002
 10
688.9625854647
 20
-961.2061901216
 10
687.2603690838
 20
-958.1321261475
 10
685.8993077339
 20
-955.0019293639
 10
684.8848857738
 20
-951.8282001138
 10
684.221194082
 20
-948.6237197008
 10
683.9108984465
 20
-945.4013895623
 10
683.9552448337
 20
-942.1741856489
 10
684.3540672903
 20
-938.9551052006
 10
685.1057457968
 20
-935.7571059198
 10
686.2072642193
 20
-932.5930664338
 10
687.6541839679
 20
-929.4757315499
 10
689.4406729725
 20
-926.4176468666
 10
691.5595451953
 20
-923.4311298807
 10
694.0022672166
 20
-920.5282053583
 10
696.7590056498
 20
-917.7205657973
 10
699.8186488734
 20
-915.0195102198
 10
703.1688900078
 20
-912.4359206019
 10
706.7962275733
 20
-909.9801945838
 10
710.6860689645
 20
-907.662228314
 10
714.8227359654
 20
-905.4913463562
 10
719.1895808178
 20
-903.4762955112
 10
723.7690189839
 20
-901.6251894073
 10
728.5426145102
 20
-899.9454835514
 10
733.4911313116
 20
-898.4439335584
 10
738.5946589534
 20
-897.1265955307
 10
743.8326403104
 20
-895.9987675127
 10
749.1839887873
 20
-895.0649948126
 10
754.6271489054
 20
-894.3290350275
 10
760.1402069375
 20
-893.7938489184
 10
765.7009620313
 20
-893.461595849
 10
771.2870236734
 20
-893.3336140166
 10
776.875903886
 20
-893.4104189311
 10
782.4450936178
 20
-893.6916958121
 10
787.9721654771
 20
-894.1763163161
 10
793.434868562
 20
-894.8623294123
 10
798.8112074859
 20
-895.7469705072
 10
804.0795214029
 20
-896.8266827333
 10
809.2186117653
 20
-898.0971116276
 10
814.2077792021
 20
-899.5531446685
 10
819.0269328375
 20
-901.1889196401
 10
823.6566726087
 20
-902.9978478219
 10
828.0783478768
 20
-904.9726478248
 10
832.274163946
 20
-907.1053645037
 10
836.2272172959
 20
-909.3874136278
 10
839.9215912349
 20
-911.8096066867
 10
843.3424158282
 20
-914.3621854858
 10
846.4759108671
 20
-917.0348773659
 10
849.3094632489
 20
-919.8169155422
 10
851.8316597385
 20
-922.697100597
 10
854.0323455797
 20
-925.6638343145
 10
855.9026646659
 20
-928.7051672022
 10
857.4350740284
 20
-931.808861599
 10
858.6234123247
 20
-934.9624129647
 10
859.4628906191
 20
-938.1531236329
 10
859.9501292614
 20
-941.3681484313
 10
860.0831736912
 20
-944.5945403024
 10
859.8614786339
 20
-947.8193050473
 10
859.2859370757
 20
-951.0294606329
 10
858.3588670933
 20
-954.2120812908
 10
857.0840092195
 20
-957.3543507419
 10
855.466492199
 20
-960.4436184607
 10
853.5128250857
 20
-963.4674407343
 10
851.2308814377
 20
-966.4136445302
 10
848.6298387312
 20
-969.2703624727
 10
845.7201875803
 20
-972.0261005125
 10
842.5136303209
 20
-974.669753894
 10
839.0230816693
 20
-977.1906797679
 10
835.2625963648
 20
-979.5787267965
 10
831.2473259524
 20
-981.8242844336
 10
826.9934228002
 20
-983.9183018378
 10
822.5180293981
 20
-985.8523548771
 10
817.8391569382
 20
-987.6186493135
 10
812.9756555986
 20
-989.2100805365
 10
807.9470979806
 20
-990.6202339434
 10
802.7737382791
 20
-991.8434328411
 10
797.4764062569
 20
-992.8747509912
 10
792.076438756
 20
-993.7100399824
 10
786.5955677452
 20
-994.3459330324
 10
781.0558702707
 20
-994.7798677976
 10
775.479655186
 20
-995.0101031011
 10
769.8893683223
 20
-995.0357037255
 10
764.3075239993
 20
-994.8565738681
 10
758.7565996579
 20
-994.4734328097
 10
753.2589436647
 20
-993.8878194773
 10
747.8366962861
 20
-993.1020954846
 10
742.5116843211
 20
-992.1194268846
 10
737.3053578815
 20
-990.9437659209
 10
732.2386797561
 20
-989.5798479867
 10
727.3320490196
 20
-988.0331657732
 10
722.6052259585
 20
-986.3099441783
 10
718.0772378992
 20
-984.4171285213
 10
713.7663235611
 20
-982.3623341706
 10
709.6898365799
 20
-980.1538395105
  0
ENDSEC
  0
SECTION
  2
OBJECTS
  0
DICTIONARY
  5
C
330
0
100
AcDbDictionary
281
     1
  3
ACAD_GROUP
350
D
  3
ACAD_LAYOUT
350
1A
  3
ACAD_MLINESTYLE
350
17
  3
ACAD_PLOTSETTINGS
350
19
  3
ACAD_PLOTSTYLENAME
350
E
  3
ACAD_SCALELIST
350
47
  0
DICTIONARY
  5
D
102
{ACAD_REACTORS
330
C
102
}
330
C
100
AcDbDictionary
281
     1
  0
DICTIONARY
  5
1A
102
{ACAD_REACTORS
330
C
102
}
330
C
100
AcDbDictionary
281
     1
  3
Layout1
350
1E
  3
Layout2
350
26
  3
Model
350
22
  0
DICTIONARY
  5
17
102
{ACAD_REACTORS
330
C
102
}
330
C
100
AcDbDictionary
281
     1
  3
Standard
350
18
  0
DICTIONARY
  5
19
102
{ACAD_REACTORS
330
C
102
}
330
C
100
AcDbDictionary
281
     1
  0
ACDBDICTIONARYWDFLT
  5
E
102
{ACAD_REACTORS
330
C
102
}
330
C
100
AcDbDictionary
281
     1
  3
Normal
350
F
100
AcDbDictionaryWithDefault
340
F
  0
DICTIONARY
  5
47
102
{ACAD_REACTORS
330
C
102
}
330
C
100
AcDbDictionary
281
     1
  3
A0
350
48
  3
A1
350
49
  3
A2
350
4A
  3
A3
350
4B
  3
A4
350
4C
  3
A5
350
4D
  3
A6
350
4E
  3
A7
350
4F
  3
A8
350
50
  3
A9
350
51
  3
B0
350
52
  3
B1
350
53
  3
B2
350
54
  3
B3
350
55
  3
B4
350
56
  3
B5
350
57
  3
B6
350
58
  3
B7
350
59
  3
B8
350
5A
  3
B9
350
5B
  3
C0
350
5C
  3
C1
350
5D
  3
C2
350
5E
  3
C3
350
5F
  3
C4
350
60
  3
C5
350
61
  3
C6
350
62
  3
C7
350
63
  3
C8
350
64
  3
C9
350
65
  3
D0
350
66
  3
D1
350
67
  3
D2
350
68
  0
LAYOUT
  5
1E
102
{ACAD_REACTORS
330
1A
102
}
330
1A
100
AcDbPlotSettings
  1

  2
none_device
  4

  6

 40
0.0
 41
0.0
 42
0.0
 43
0.0
 44
0.0
 45
0.0
 46
0.0
 47
0.0
 48
0.0
 49
0.0
140
0.0
141
0.0
142
1.0
143
1.0
 70
   688
 72
     1
 73
     0
 74
     5
  7

 75
    16
147
1.0
148
0.0
149
0.0
100
AcDbLayout
  1
Layout1
 70
     1
 71
     1
 10
0.0
 20
0.0
 11
420.0
 21
297.0
 12
0.0
 22
0.0
 32
0.0
 14
1.0000000000E+20
 24
1.0000000000E+20
 34
1.0000000000E+20
 15
-1.0000000000E+20
 25
-1.0000000000E+20
 35
-1.0000000000E+20
146
0.0
 13
0.0
 23
0.0
 33
0.0
 16
1.0
 26
0.0
 36
0.0
 17
0.0
 27
1.0
 37
0.0
 76
     0
330
1B
  0
LAYOUT
  5
26
102
{ACAD_REACTORS
330
1A
102
}
330
1A
100
AcDbPlotSettings
  1

  2
none_device
  4

  6

 40
0.0
 41
0.0
 42
0.0
 43
0.0
 44
0.0
 45
0.0
 46
0.0
 47
0.0
 48
0.0
 49
0.0
140
0.0
141
0.0
142
1.0
143
1.0
 70
   688
 72
     1
 73
     0
 74
     5
  7

 75
    16
147
1.0
148
0.0
149
0.0
100
AcDbLayout
  1
Layout2
 70
     1
 71
     2
 10
0.0
 20
0.0
 11
0.0
 21
0.0
 12
0.0
 22
0.0
 32
0.0
 14
0.0
 24
0.0
 34
0.0
 15
0.0
 25
0.0
 35
0.0
146
0.0
 13
0.0
 23
0.0
 33
0.0
 16
1.0
 26
0.0
 36
0.0
 17
0.0
 27
1.0
 37
0.0
 76
     0
330
23
  0
LAYOUT
  5
22
102
{ACAD_REACTORS
330
1A
102
}
330
1A
100
AcDbPlotSettings
  1

  2
none_device
  4
Letter_(8.50_x_11.00_Inches)
  6

 40
6.35
 41
6.35
 42
6.35000508
 43
6.35000508
 44
215.9
 45
279.4
 46
0.0
 47
0.0
 48
0.0
 49
0.0
140
0.0
141
0.0
142
1.0
143
1.0
 70
  1712
 72
     1
 73
     0
 74
     0
  7

 75
     0
147
1.0
148
0.0
149
0.0
100
AcDbLayout
  1
Model
 70
     1
 71
     0
 10
0.0
 20
0.0
 11
279.4
 21
215.9
 12
0.0
 22
0.0
 32
0.0
 14
0.0
 24
0.0
 34
0.0
 15
279.4
 25
215.9
 35
0.0
146
0.0
 13
0.0
 23
0.0
 33
0.0
 16
1.0
 26
0.0
 36
0.0
 17
0.0
 27
1.0
 37
0.0
 76
     0
330
1F
331
29
  0
MLINESTYLE
  5
18
102
{ACAD_REACTORS
330
17
102
}
330
17
100
AcDbMlineStyle
  2
Standard
 70
     0
  3

 62
   256
 51
90.0
 52
90.0
 71
     2
 49
0.5
 62
   256
  6
BYLAYER
 49
-0.5
 62
   256
  6
BYLAYER
  0
ACDBPLACEHOLDER
  5
F
102
{ACAD_REACTORS
330
E
102
}
330
E
  0
SCALE
  5
48
102
{ACAD_REACTORS
330
47
102
}
330
47
100
AcDbScale
 70
     0
300
1:1
140
1.0
141
1.0
290
     1
  0
SCALE
  5
49
102
{ACAD_REACTORS
330
47
102
}
330
47
100
AcDbScale
 70
     0
300
1:2
140
1.0
141
2.0
290
     0
  0
SCALE
  5
4A
102
{ACAD_REACTORS
330
47
102
}
330
47
100
AcDbScale
 70
     0
300
1:4
140
1.0
141
4.0
290
     0
  0
SCALE
  5
4B
102
{ACAD_REACTORS
330
47
102
}
330
47
100
AcDbScale
 70
     0
300
1:5
140
1.0
141
5.0
290
     0
  0
SCALE
  5
4C
102
{ACAD_REACTORS
330
47
102
}
330
47
100
AcDbScale
 70
     0
300
1:8
140
1.0
141
8.0
290
     0
  0
SCALE
  5
4D
102
{ACAD_REACTORS
330
47
102
}
330
47
100
AcDbScale
 70
     0
300
1:10
140
1.0
141
10.0
290
     0
  0
SCALE
  5
4E
102
{ACAD_REACTORS
330
47
102
}
330
47
100
AcDbScale
 70
     0
300
1:16
140
1.0
141
16.0
290
     0
  0
SCALE
  5
4F
102
{ACAD_REACTORS
330
47
102
}
330
47
100
AcDbScale
 70
     0
300
1:20
140
1.0
141
20.0
290
     0
  0
SCALE
  5
50
102
{ACAD_REACTORS
330
47
102
}
330
47
100
AcDbScale
 70
     0
300
1:30
140
1.0
141
30.0
290
     0
  0
SCALE
  5
51
102
{ACAD_REACTORS
330
47
102
}
330
47
100
AcDbScale
 70
     0
300
1:40
140
1.0
141
40.0
290
     0
  0
SCALE
  5
52
102
{ACAD_REACTORS
330
47
102
}
330
47
100
AcDbScale
 70
     0
300
1:50
140
1.0
141
50.0
290
     0
  0
SCALE
  5
53
102
{ACAD_REACTORS
330
47
102
}
330
47
100
AcDbScale
 70
     0
300
1:100
140
1.0
141
100.0
290
     0
  0
SCALE
  5
54
102
{ACAD_REACTORS
330
47
102
}
330
47
100
AcDbScale
 70
     0
300
2:1
140
2.0
141
1.0
290
     0
  0
SCALE
  5
55
102
{ACAD_REACTORS
330
47
102
}
330
47
100
AcDbScale
 70
     0
300
4:1
140
4.0
141
1.0
290
     0
  0
SCALE
  5
56
102
{ACAD_REACTORS
330
47
102
}
330
47
100
AcDbScale
 70
     0
300
8:1
140
8.0
141
1.0
290
     0
  0
SCALE
  5
57
102
{ACAD_REACTORS
330
47
102
}
330
47
100
AcDbScale
 70
     0
300
10:1
140
10.0
141
1.0
290
     0
  0
SCALE
  5
58
102
{ACAD_REACTORS
330
47
102
}
330
47
100
AcDbScale
 70
     0
300
100:1
140
100.0
141
1.0
290
     0
  0
SCALE
  5
59
102
{ACAD_REACTORS
330
47
102
}
330
47
100
AcDbScale
 70
     0
300
1/128" = 1'-0"
140
0.0078125
141
12.0
290
     0
  0
SCALE
  5
5A
102
{ACAD_REACTORS
330
47
102
}
330
47
100
AcDbScale
 70
     0
300
1/64" = 1'-0"
140
0.015625
141
12.0
290
     0
  0
SCALE
  5
5B
102
{ACAD_REACTORS
330
47
102
}
330
47
100
AcDbScale
 70
     0
300
1/32" = 1'-0"
140
0.03125
141
12.0
290
     0
  0
SCALE
  5
5C
102
{ACAD_REACTORS
330
47
102
}
330
47
100
AcDbScale
 70
     0
300
1/16" = 1'-0"
140
0.0625
141
12.0
290
     0
  0
SCALE
  5
5D
102
{ACAD_REACTORS
330
47
102
}
330
47
100
AcDbScale
 70
     0
300
3/32" = 1'-0"
140
0.09375
141
12.0
290
     0
  0
SCALE
  5
5E
102
{ACAD_REACTORS
330
47
102
}
330
47
100
AcDbScale
 70
     0
300
1/8" = 1'-0"
140
0.125
141
12.0
290
     0
  0
SCALE
  5
5F
102
{ACAD_REACTORS
330
47
102
}
330
47
100
AcDbScale
 70
     0
300
3/16" = 1'-0"
140
0.1875
141
12.0
290
     0
  0
SCALE
  5
60
102
{ACAD_REACTORS
330
47
102
}
330
47
100
AcDbScale
 70
     0
300
1/4" = 1'-0"
140
0.25
141
12.0
290
     0
  0
SCALE
  5
61
102
{ACAD_REACTORS
330
47
102
}
330
47
100
AcDbScale
 70
     0
300
3/8" = 1'-0"
140
0.375
141
12.0
290
     0
  0
SCALE
  5
62
102
{ACAD_REACTORS
330
47
102
}
330
47
100
AcDbScale
 70
     0
300
1/2" = 1'-0"
140
0.5
141
12.0
290
     0
  0
SCALE
  5
63
102
{ACAD_REACTORS
330
47
102
}
330
47
100
AcDbScale
 70
     0
300
3/4" = 1'-0"
140
0.75
141
12.0
290
     0
  0
SCALE
  5
64
102
{ACAD_REACTORS
330
47
102
}
330
47
100
AcDbScale
 70
     0
300
1" = 1'-0"
140
1.0
141
12.0
290
     0
  0
SCALE
  5
65
102
{ACAD_REACTORS
330
47
102
}
330
47
100
AcDbScale
 70
     0
300
1-1/2" = 1'-0"
140
1.5
141
12.0
290
     0
  0
SCALE
  5
66
102
{ACAD_REACTORS
330
47
102
}
330
47
100
AcDbScale
 70
     0
300
3" = 1'-0"
140
3.0
141
12.0
290
     0
  0
SCALE
  5
67
102
{ACAD_REACTORS
330
47
102
}
330
47
100
AcDbScale
 70
     0
300
6" = 1'-0"
140
6.0
141
12.0
290
     0
  0
SCALE
  5
68
102
{ACAD_REACTORS
330
47
102
}
330
47
100
AcDbScale
 70
     0
300
1'-0" = 1'-0"
140
12.0
141
12.0
290
     0
  0
ENDSEC
  0
EOF
